Guitar Tabs
song title    band name

Join Us Today!

Don't strum alone...
be a part of the largest online Christian music community. Browse thousands of guitar tabs and chat w/ musicians like yourself.


It's Free!

Barnard, Shane - Received

This tab has been rated a 2.50 out of 5 for accuracy. (2 votes)Sorry, but you must be logged in to rate this tab.
Click here to log-in, or you can click here to register.
(Registration is free)

All songs owned by corresponding publishing company. If you make copies of any song on this website, be sure to report your usage to CCLI.
#----------------------------------PLEASE NOTE--------------------------------#
#This file is the author’s own work and represents their interpretation of the#
#song. You may only use this file for private study, scholarship, or research.#
#-----------------------------------------------------------------------------#
#-- File created with Instab - http://www.pconline.com/~smcarey/instab.html --#
#-----------------------------------------------------------------------------#

Author/Artist: Shane Barnard
Title: Received
Album: Rocks Won’t Cry
Transcribed by: Andrew Shepherd
Email: andrew06@integrity.com

Here’s the intro to Received, by Shane Barnard.  He also plays this while
singing the verse. I am basically just adding on the intro and correcting a
few chords and also adding a few. All tab relative to partial capo on the
4th fret, and full capo on the second fret. Key of F#. Hope this helps! 
Andrew

-----3-2----1*--------------3-2----1*-------------0-x-x------0-0-0-0-0-0-0----
------------0----------------------0--------------0-x-x------0-0-0-0-0-0-0----
-2-2--------0-----------2-2--------0--------------0-x--------0---0---0---0----
-0-0--------------------0-0-----------------------0-x--------0---0---0---0----
--------------------------------------------------2-x--0-0h2-2---2---2---2----
---------------3-2-1*-0----------------1*-2-3-5-3-3-x--3-3---3---3---3---3----
                                                                              

-0--0--0-----0----------------------------------------------------------------
-0--0--0-----0----------------------------------------------------------------
-2--2--x-2-2-2----------------------------------------------------------------
-2--2--x-2-2-2----------------------------------------------------------------
-0--0--x----------------------------------------------------------------------
-------x-------5-3-2-1*-0-----------------------------------------------------
                                                                              

Chorus 
E - 007705
B - 002205
A - 055400

Prechorus
Bsus5     002220
Bsus5(2)  007650
Asus5     005430
Gsus5     003210



Verse:
You can only go so far
Until the bottom falls out
All my singing, smiling 
Pleasure finds me all right
Pretty melody 
Dedicated to God
To be called by One 
Almighty God and 
Take it for granted
Heard a rumor I guess 
But I wanna know who told me so
Told me serving You replaced me knowing You

Prechorus

Chorus:
Can I be recieved? 
Unclean oh Lord am I 
Find me in my shame
You are all I need 
please don't pass me by 
I call upon Your name

Verse 2:
You whispered to Your child today
But I haven't got a minute to listen
Your child is busy with 
the work of God and taking Him for granted
Got a lot to do today 
kingdom work's the game I play
Lord my serving You replaced me knowing You

Verse: strum these notes
e-0-3-3-2-0---3-3-2-0--------H3----H3----------
B----------------------------H3----H3----------
G-2-2-2-2-2-2-2-2-2-2-------2H3-2 2H3--2-------
D-----------2-2-2-2-2--------H3----H3--2-------
A---------------------2-2-2--H3----H3----------
E---------------------3-3-3--H3----H3---5-3-2-0

After the first verse slide up from B-C#-E2-H7

Prechorus:
B--5----3----1-------5-3-5-------------
G--6----4----2-------------------------
D--7----5----3-------------------------
A----------------2-2-2-2-2-------------
E----------------3-3-3-3-3-------------


chorus:
e--5-0-5-0---5-5---------------|----------H7--s
B------------------------------|----------H7--t
G--7-7-7-7---2-2-------2-2--6-6|-2-2/-4/7-H7--r
D--7-7-7-7---2-2------------7-7|-2-2/-4/7-H7--u
A-----------------2-2-------7-7|----------H7--m
E-----------------3-3----------|----------H7---

In the bar before the last measure play B, A, G, like this

G-6--4--2----
D-7--5--3--2-
A-7--5--3----
E-5--3--1----

Comments about this tab

No comments/corrections found. Add your own

Complimentary Christian Ringtones
Dadamobile and CGR have teamed up to bring your favorite Christian artists right to your phone. Sign up today and get 10 complementary ringtones!
Tab Country
Did you know CGR has a sister site w/ country guitar tabs? Well we do! Its called Tab Country. It has a great archive with a lot of country tabs.
Rockin Tabs
Are you looking for a site that has rock guitar tabs? Then Rockintabs.com is the place for you. It is a budding site with many rock guitar tabs. Submit your tab today.
Tab Gallery
Tab Gallery has a compilation of christian, rock, and country tabs all in one place. Come visit us.