Guitar Tabs
song title    band name

Join Us Today!

Don't strum alone...
be a part of the largest online Christian music community. Browse thousands of guitar tabs and chat w/ musicians like yourself.


It's Free!

Reuben, John - No Regrets

This tab has not yet been rated for accuracy.Sorry, but you must be logged in to rate this tab.
Click here to log-in, or you can click here to register.
(Registration is free)

All songs owned by corresponding publishing company. If you make copies of any song on this website, be sure to report your usage to CCLI.
	John Reuben
	No Regrets
	Album: Are We There Yet
	c 2000 Gotee Records
	tabbed by Chad
	mach5rider@hotmail.com

This is a Really simple song for the guitar 
just listen to it and you'll pick it up. But 
I dont listen to too much hip hop so if 
some of the lyrics are wrong let me know. 







The basic riff looks like this:

       D     B2        D       B2
E------------------------------------
B-------3--------2-------3-------2---
G-----2--------4-------2-------4-----
D---0--------4-------0-------4-------
A----------2---------------2---------
E------------------------------------


	D		B2		
        OOOOOOOh 	OOOOOOh	

	D
	OOOOOOOh	
	 

D
No regrets  no regrets	no regrets
	
B2
No regrets  no regrets   no regrets  I say

D                               
No regrets  no regrets   no regrets  I stay in him
	

B2
E----------------------------------------------
B----------2b----------------------------------
G--------4-------------------------------------
D------4---------------------------------------
A----2-----------------------------------------
E----------------------------------------------


D
Man it's hard lookin back and now you able to see

B2
Wishin to God sometimes that you could do it all again

D
Strugglin can start to take it's toll

B2	
16 years old and trying to change what you can't control

D
But it's not your fault but tell me what can you do 

B2
When things fall apart and everybody's lookin at you
	
D
With two fingers pointing screaming get it together whatever
	
B2
But man whos in the mix to show me any better so whatever
	
D
Im runnin on my own solo 
	
B2
Trying to make things happen off the little bit I know

D
So I guess Ill get what I get but yet 

B2
I dont want to live my life with no regrets


	Chorus

	D	      b2	
	To the future in the palm of God's hand

	D		      B2	
	To the past thats now that I can't understand
	
	D		B
	To the future   uncertain unplanned

	D				
	To the paths that led to bring me here

	B2
	I stay I pray I stay I pray



	Lead

E----------------------------------------
B----------------------------2b----------
G--------------------------4-------------
D------7-7-9p7-----------4---------------
A----5-----------------2-----------------
E----------------------------------------
	


	Bridge 


	    	C#  D	      B2
	E--------------------------------
	B---------------------2----------
	G-------6-\-7---------4----------
	D-------6-\-7---------4----------
	A-------4-\-5---------2----------
	E--------------------------------
		No regrets No regrets I say


chords

    D		B2		D	   C#
E-----------------------------------------------
B---3------------2------------------------------
G---2------------4---------------7---------6----
D---0------------4---------------7---------6----
A----------------2---------------5---------4----
E-----------------------------------------------


any questoins or comments let me know
mach5rider@hotmail.com

Comments about this tab

No comments/corrections found. Add your own

Complimentary Christian Ringtones
Dadamobile and CGR have teamed up to bring your favorite Christian artists right to your phone. Sign up today and get 10 complementary ringtones!
Tab Country
Did you know CGR has a sister site w/ country guitar tabs? Well we do! Its called Tab Country. It has a great archive with a lot of country tabs.
Rockin Tabs
Are you looking for a site that has rock guitar tabs? Then Rockintabs.com is the place for you. It is a budding site with many rock guitar tabs. Submit your tab today.
Tab Gallery
Tab Gallery has a compilation of christian, rock, and country tabs all in one place. Come visit us.