Guitar Tabs
song title    band name

Join Us Today!

Don't strum alone...
be a part of the largest online Christian music community. Browse thousands of guitar tabs and chat w/ musicians like yourself.


It's Free!

DC Talk - Say the Words (Now)

This tab has been rated a 4.60 out of 5 for accuracy. (5 votes)Sorry, but you must be logged in to rate this tab.
Click here to log-in, or you can click here to register.
(Registration is free)

All songs owned by corresponding publishing company. If you make copies of any song on this website, be sure to report your usage to CCLI.
Say the Words (Now)
Artist: dcTalk
CD: Intermission
c2000 Achtober music
Tabbed by Steve Cruickshank
(postlambjam@hotmail.com)


Intro: from So Help Me God

e-------------------------------------0----------------------------------
B---------0---------3--------2---3---------------------------------------
G-------1---------2--------2---2---2----2--------------------------------
D-----2---------0--------------------------------------------------------
A------------------------0-----------------------------------------------
E---0---------3----------------------------------------------------------
    E         Gadd9      A       Asus

e--------------------------3--2------------------------------------------
B---------0---------3------------3-----3-----3---------------------------
G-------1---------2--------------------0-----0---------------------------
D-----0---------0----------0-----------2-----0---------------------------
A--------------------------------------3-----1---------------------------
E---0---------3----------------------------------------------------------
    E7        Gadd9        Dsus D      C2    G/Bb


Then: G  D  A  Em
      G  Bm A


Verse 1:
Bm
Bm

G Bm
A Em
G Bm
A

Chorus:
G D
A Em
G Bm A
(x2)

G  D  A

Verse 2:
G Em Bm A
G Em Bm A

G Bm
A Em
G Bm
A

[chorus]

Bridge: (Rap)
Bm
Bm
G
G
Em
Em
Bm
Bm

[chorus]

Comments about this tab

ThriveLuvr777 - 2005-03-14

omg thank u much:-D this is such an easy song and MY FAVE!!!! from them. im new to playin guitar about 4-5 months now and im already in a band and im pretty good. thanks againb lylas or lylab god bless


Me!!!


guitardude101 - 2005-04-07

dude this song is awsome the intro dosent sound right though. neverthe less it was totaly awsome


afroman362 - 2005-05-28

dude i loved it man it rocked i would luv to here more dude so dont stop ok


guitardude101 - 2005-06-29

dude what up with the intro? it sounded wacked up, but the rest of the song is great.


matt j t - 2005-08-21

how is the intro wacked?....it sounds perfect!!....5.0 for me!
great job man!


guitarfreak15 - 2005-11-01

yo dude it sounds great but the into is a little bit off try again on that one
but like the rest


josh berg - 2006-09-03

Where is the solo in the finishing chorus's?


Add a comment/correction

Complimentary Christian Ringtones
Dadamobile and CGR have teamed up to bring your favorite Christian artists right to your phone. Sign up today and get 10 complementary ringtones!
Tab Country
Did you know CGR has a sister site w/ country guitar tabs? Well we do! Its called Tab Country. It has a great archive with a lot of country tabs.
Rockin Tabs
Are you looking for a site that has rock guitar tabs? Then Rockintabs.com is the place for you. It is a budding site with many rock guitar tabs. Submit your tab today.
Tab Gallery
Tab Gallery has a compilation of christian, rock, and country tabs all in one place. Come visit us.