Guitar Tabs
song title    band name

Join Us Today!

Don't strum alone...
be a part of the largest online Christian music community. Browse thousands of guitar tabs and chat w/ musicians like yourself.


It's Free!

This tab has been rated a 1.00 out of 5 for accuracy. (1 vote)Sorry, but you must be logged in to rate this tab.
Click here to log-in, or you can click here to register.
(Registration is free)

All songs owned by corresponding publishing company. If you make copies of any song on this website, be sure to report your usage to CCLI.
Tell Us What We Want to Hear
Artist: Grover Levy
Album: Wrestling Angels
c1997 Milene music inc.
Tab: Steve Cruickshank
postlambjam@hotmail.com


Dropped-D tuning

Intro riff:
e-------------------------------------------------------
B-------------------------------------------------------
G-------10----------10----------10-----------12-14-12---
D--8------------8----------10----------10---------------
A----10----10-----8----8------8----8------10------------
D-------------------------------------------------------
   Gm           Bb         F           C


Verse:
Gm             Bb    F                 C
I awoke to the piper marching down the street
Gm           Bb      F               C
We fell in behind him like a flock of sheep
Gm                      Bb      F                     C
He said, I have come to tell you that you deserve the best


Prechorus:
   Eb        F
Oh we were impressed, now we're gonna get it
Eb          F
We all said yes


Chorus:
          Gm           Eb         F
Won't you tell us what we want to hear
Gm                Eb       F           Dsus  D
Tell us we're the victims, play on our fear
          Gm           Eb         F
Won't you tell us what we want to hear
Gm                 Eb               F                 Dsus  D
Tell us that we're blameless, we'll make you rich and famous
    Eb    F
And cheer, for what we want to hear

[Intro riff]


Verse 2:
Come join the movement, it's the latest craze
Be lord and master of all you survey
And at the altar of convenience, everyone's a king

We're gonna let freedom ring, now we're gonna get it
Let's stand and sing

[chorus]


Solo:
e---------------------------------------------------------------------
B---------------------------------------------------------------------
G--------------------------------------------------------10-----------
D--------8----8-----10h12-8----------8----/10~-----10h12--------------
A---8h10---10---10----------8---8h10---10-------8---------------------
D---------------------------------------------------------------------

e---------------------------------------------------------------------
B---11----------------------------------------------------------------
G------10-------------------7-----------------------------------------
D---------12--8/10-8---10p8---/10-10~---8\7---------------------------
A-------------------------------------------8---------------5---------
D----------------------------------------------10--8-/10-10---5-5-----

e--------------------------------------------------------------------------
B--------------------------------------------------------------------------
G-------------------------------------------------------------10h12p10--10-
D------------------------------------------------------------------------8-
A-----/6-6-5-1------/8-5-5-3-3-1----6-5-5-\1--------/8h10p8-8-----------10-
D---8----------3-3---------------1-----------5-3-3-------------------------


Verse 3:
Settled down for the evening news
See they turned Barabbas loose
We the people have made our choice
We shouted out in one clear voice


Outro:
e-------------------------------------------------------
B-------------------------------------------------------
G-------10---------10---------10----------12-14-12------
D--8-----------8---------10---------10------------------
A----10----10----8----8-----8----8-----10---------------
D-------------------------------------------------------
   Gm          Bb        F          C

e----------------------------------------------------------
B--------11-----------11-----------10-----------11---------
G--12-----------10-----------10-----------12-------12------
D-----12----12-----12----12-----10----10-----12-------12---
A----------------------------------------------------------
D----------------------------------------------------------
   Gm           Bb           F            C

e----------------------------------------------------------
B--11----11-----11----11-----------10-----11----11----11---
G-----12-----------10--------10--------------12------------
D-----------12-----------12-----10----10-----------12------
A----------------------------------------------------------
E----------------------------------------------------------
   Gm           Bb           F            C

e------13------------13-------------8------8~~~------------
B----11--------11------11-----10---------------------------
G--12-----12------10-----10------10---10-------------------
D----------------------------------------------------------
A----------------------------------------------------------
E----------------------------------------------------------
   Gm          Bb             F            C

e--10-----10------10-------10------------------------------
B----11--------------11-11--------13-------13--------------
G------12----12---------------10-----10-10----10-----------
D----------------------------------------------------------
A----------------------------------------------------------
E----------------------------------------------------------
   Gm             Bb              F               C



Chords in verse:
Gm   x55333
Bb   x13331
F    x33211
C    x32010 or x35553

Chords in Prechorus and Chorus
Eb   111xxx
F    333xxx
Gm   555xxx
Dsus 000233
D    000232

Comments about this tab

No comments/corrections found. Add your own

Complimentary Christian Ringtones
Dadamobile and CGR have teamed up to bring your favorite Christian artists right to your phone. Sign up today and get 10 complementary ringtones!
Tab Country
Did you know CGR has a sister site w/ country guitar tabs? Well we do! Its called Tab Country. It has a great archive with a lot of country tabs.
Rockin Tabs
Are you looking for a site that has rock guitar tabs? Then Rockintabs.com is the place for you. It is a budding site with many rock guitar tabs. Submit your tab today.
Tab Gallery
Tab Gallery has a compilation of christian, rock, and country tabs all in one place. Come visit us.