Guitar Tabs
song title    band name

Join Us Today!

Don't strum alone...
be a part of the largest online Christian music community. Browse thousands of guitar tabs and chat w/ musicians like yourself.


It's Free!

Juliana Theory, The - This Is Not a Love Song

This tab has not yet been rated for accuracy.Sorry, but you must be logged in to rate this tab.
Click here to log-in, or you can click here to register.
(Registration is free)

All songs owned by corresponding publishing company. If you make copies of any song on this website, be sure to report your usage to CCLI.
Song: This is not a love song
Band: The Juliana Theory
Copywrite: 1999, we own your songs
Tabbed By: Chris. If you like the Juliana Theory send me some
mail at thejulianatheory_1@hotmail.com

---------------------------|----------------------|---------------------------
--------7-----8---8\7------|-------7-----7---7----|-------8-7-5---------------
----------7-----7-----7----|---------7-----7---7--|-------------7-------------
----5-------5-----------5--|---5-------5----------|---7-----------------------
-7---7--------------------|-5---5----------------|-5---5---------------------
---------------------------|----------------------|---------------------------
A      (Lead)  B      On 4th x play instead of B 
------------------------------------------------------------------------------
--------------8---8-----------------------------------------------------------
--------7-------7---7--------------------7---7--------------------------------
--------0--------------------------7-------7---7------------------------------
-7---------------------------5------------------------------------------------
------------------------------------------------------------------------------
Guitar 2   (lines up with lead) 
-2----0----3-------|-------------------|--------------------------------------
-3----3----3-------|-3----5------------|----------------------7-8-7-----------
-2----2----4-------|-4----5----4--4----|-7-7-7----------------------7---------
-4----4----5-------|-4----5----5--5----|-------5-5-5--------------------------
-2----0----5-------|-2----3----5--5----|-5-5-5--------------------------------
-----------3-------|-----------3--2----|-------3-3-3--------------------------
Guitar 2                                A couple times then 
--------------------------------------|---------------------------------------
--------------------------------------|---------------------------------------
-11-11-11\9/11-12--14-14-14--------7--|---------------------------------------
--------------------------------------|---------------------------------------
-9--9--9-\7/9--10--12-12-12--------5--|---------------------------------------
--------------------------------------|---------------------------------------
Lead             3x        end on 
--------------------------------------|---------------------------------------
-7------------------------------------|---7---7---7---7---7-------------------
-7------------------------------------|-7---7---7---7---7---------------------
-7------------------------------------|---------------------------------------
-5------------------------------------|---------------------------------------
--------------------------------------|---------------------------------------
Played repeatedly, die out.    Lead ends with this on the doo doo doos

Comments about this tab

No comments/corrections found. Add your own

Complimentary Christian Ringtones
Dadamobile and CGR have teamed up to bring your favorite Christian artists right to your phone. Sign up today and get 10 complementary ringtones!
Tab Country
Did you know CGR has a sister site w/ country guitar tabs? Well we do! Its called Tab Country. It has a great archive with a lot of country tabs.
Rockin Tabs
Are you looking for a site that has rock guitar tabs? Then Rockintabs.com is the place for you. It is a budding site with many rock guitar tabs. Submit your tab today.
Tab Gallery
Tab Gallery has a compilation of christian, rock, and country tabs all in one place. Come visit us.