Guitar Tabs
song title    band name

Join Us Today!

Don't strum alone...
be a part of the largest online Christian music community. Browse thousands of guitar tabs and chat w/ musicians like yourself.


It's Free!

This tab has not yet been rated for accuracy.Sorry, but you must be logged in to rate this tab.
Click here to log-in, or you can click here to register.
(Registration is free)

All songs owned by corresponding publishing company. If you make copies of any song on this website, be sure to report your usage to CCLI.
Song: Week Long Embrace
Band: The Juliana Theory
Copywrite: 1998 Arise Records
Tabbed By: Chris. If you like The Juliana Theory send me some
mail at thejulianatheory_1@hotmail.com

INTROGuitar 1:
e|---------2-----------2-----------------------------------------------------|
B|---------3-----------3-------2---2---3-2---3-2-3p2-------------------------|
G|-----2-----------2-----------2---2-----------------------------------------|
D|-------4-------4---2-------------------------------------------------------|
A|-2---------2--------------0----0---0-----0---------------------------------|
E|-------------3----------3--------------------------------------------------|
Guitar 2: (rests)Guitar 1:
e|---------2-----------2-----------------------------------------------------|
B|---------3-----------3-------2---2--3p2-3p2-3p2----------------------------|
G|-----2-----------2-----------2---2-----------------------------------------|
D|---4---4-------4---2-------------------------------------------------------|
A|-2---------2--------------0----0---0---0---0-------------------------------|
E|-------------3----------3--------------------------------------------------|
Guitar 2: (still rests)Guitar 1:
e|---------2-----------2-----------------------------------------------------|
B|---------3-----------3-------2---2---3-2---3-2-3p2-------------------------|
G|-----2-----------2-----------2---2-----------------------------------------|
D|-------4-------4---2-------------------------------------------------------|
A|-2---------2--------------0----0---0-----0---------------------------------|
E|-------------3----------3--------------------------------------------------|
Guitar 2:
e|---------------------------------------------------------------------------|
B|---7---7---8---8---8p7---7---7---8---8---8p7-------------------------------|
G|--7---7---7---7---7-----7---7---7---7---7----------------------------------|
D|-7---7---7---7---7-----7---7---7---7---7-----------------------------------|
A|---------------------------------------------------------------------------|
E|---------------------------------------------------------------------------|
Guitar 1:
e|---------2-----------2-----------------------------------------------------|
B|---------3-----------3-------2---2--3p2-3p2-3p2----------------------------|
G|-----2-----------2-----------2---2-----------------------------------------|
D|---4---4-------4---2-------------------------------------------------------|
A|-2---------2--------------0----0---0---0---0-------------------------------|
E|-------------3----------3--------------------------------------------------|
Guitar 2:
e|---------------------------------------------------------------------------|
B|---7---7---8---8---8p7---7---7---8---8---8p7-------------------------------|
G|--7---7---7---7---7-----7---7---7---7---7----------------------------------|
D|-7---7---7---7---7-----7---7---7---7---7-----------------------------------|
A|---------------------------------------------------------------------------|
E|---------------------------------------------------------------------------|
VERSE: Guitar 1 (chords) & Guitar 2 (tab):
B5	   G5      A5	        B5	      G5	   A5
e|---------------------------------------------------------------------------|
B|---------------------------------------------------------------------------|
G|----11--11---7---7---9--9--14-12----11---11---7---7----9---9---------------|
D|---------------------------------------------------------------9---7-------|
A|----9---9----5---5---7--7--12-10----9----9----5---5----7---7---------------|
E|---------------------------------------------------------------7---5-------|
Guitar 1 & Guitar 2 continue as above.Guitar 3:
e|---------------------------------------------------------------------------|
B|---10-8-7---10-8-7---10-8-7---10-8-7---(Play for---------------------------|
G|----------7--------7--------7--------7--a while)-----7-(Let----------------|
D|-----------------------------------------------------4-ring)---------------|
A|---------------------------------------------------------------------------|
E|---------------------------------------------------------------------------|
Guitar 1 & Guitar 2: Fade and RestGuitar 3 (After 1 and 2 Guitars fade out):
e|---------------------------------------------------------------------------|
B|---------------------------------------------------------------------------|
G|---------------------------------------------------------------------------|
D|--4-5-4----7-5-4--------4--------------------------------------------------|
A|--------------------5-7----7-----------------------------------------------|
E|---------------------------------------------------------------------------|
VERSE: Guitar 1 (chords) & Guitar 2 (tab):
B5        G5         A5                   B5        G5       A5
e|---------------------------------------------------------------------------|
B|---------------------------------------------------------------------------|
G|---------------------------------------------------------------------------|
D|----7-5-4h5h4----7-5p4---7-5-4h5h4----7-5p4---7-5-4h5h4----7-5p4-----------|
A|--------------5-------5------------5-------5-------------5-------5-7---5-7-|
E|---------------------------------------------------------------------------|
CHORUS:
Guitar 1 (chords) & Guitar 2 (tab) (If you want it to sound totally right, the
guitar playing the power chords has to be in drop D and hit the low D... but
playing the D an octave higher in standard tuning works just as well):
D5  B5  A5  G5				D5  B5
e|---------------------------------------------------------------------------|
B|---------------------------------------------------------------------------|
G|---7---11--9---7--9--11--12-11-9-7-7----7---11-----------------------------|
D|---------------------------------------------------------------------------|
A|---5---9---7---5--7--9---10-9--7-5-5----5---9------------------------------|
E|---------------------------------------------------------------------------|
Guitar 1 (Guitar 2 hits note in parentheses at roughly same time as Guitar 1
hits 7 on B string): 
e|---------------------------------------------------------------------------|
B|-------7-------7-------7------(10)7----------------------------------------|
G|-----7---7---7---7---7---7---7------7--------------------------------------|
D|---5-------5-------5-------5----------5------------------------------------|
A|---------------------------------------------------------------------------|
E|---------------------------------------------------------------------------|
Guitar 1 & Guitar 2:     D5  B5  A5  G5				D5  B5  
e|---------------------------------------------------------------------------|
B|---------------------------------------------------------------------------|
G|---7---11--9---7--9--11--12-11-9-7-7----7---11-----------------------------|
D|---------------------------------------------------------------------------|
A|---5---9---7---5--7--9---10-9--7-5-5----5---9------------------------------|
E|---------------------------------------------------------------------------|
Guitar 1 (Thereís actually a second part here that harmonizes, too, but I canít
figure it out):
e|---------------------------------------------------------------------------|
B|-------7-------7-------7-------7-------7-------7-------7h8p7-----7h8p7-----|
G|-----7---7---7---7---7---7---7---7---7---7---7---7---7---------7-----------|
D|---5-------5-------5-------5----------------------5----------5-------------|
A|-----------------------------------5-------7-------------------------------|
E|---------------------------------------------------------------------------|
VERSE: Guitar 1 (chords) & Guitar 2 (tab):
B5	   G5      A5	        B5	      G5	   A5
e|---------------------------------------------------------------------------|
B|---------------------------------------------------------------------------|
G|----11--11---7---7---9--9--14-12----11---11---7---7----9---9---------------|
D|---------------------------------------------------------------9---7-------|
A|----9---9----5---5---7--7--12-10----9----9----5---5----7---7---------------|
E|---------------------------------------------------------------7---5-------|
Guitar 1 & Guitar 2 continue as above.Guitar 3:
e|---------------------------------------------------------------------------|
B|---10-8-7---10-8-7---10-8-7---10-8-7-(Play for-----------------------------|
G|----------7--------7--------7---------a while)-7-(let ring)----------------|
D|---------------------------------------------------------------------------|
A|---------------------------------------------------------------------------|
E|---------------------------------------------------------------------------|
CHORUS:  D5  B5  A5  G5		D5  B5  
e|---------------------------------------------------------------------------|
B|---------------------------------------------------------------------------|
G|---7---11--9---7--9--11--12-11-9-7-7----7---11-----------------------------|
D|---------------------------------------------------------------------------|
A|---5---9---7---5--7--9---10-9--7-5-5----5---9------------------------------|
E|---------------------------------------------------------------------------|
Guitar 1 (Guitar 2 hits note in parentheses at roughly same time as Guitar 1
hits 7 on B string): 
e|---------------------------------------------------------------------------|
B|-------7-------7-------7------(10)7----------------------------------------|
G|-----7---7---7---7---7---7---7------7--------------------------------------|
D|---5-------5-------5-------5----------5------------------------------------|
A|---------------------------------------------------------------------------|
E|---------------------------------------------------------------------------|
Guitar 1 & Guitar 2:     D5  B5  A5  G5				D5  B5  
e|---------------------------------------------------------------------------|
B|---------------------------------------------------------------------------|
G|---7---11--9---7--9--11--12-11-9-7-7----7---11-----------------------------|
D|---------------------------------------------------------------------------|
A|---5---9---7---5--7--9---10-9--7-5-5----5---9------------------------------|
E|---------------------------------------------------------------------------|
ENDINGGuitar 1
e|---------------------------------------------------------------------------|
B|-------7-------7-------7-------7---7---------------------------------------|
G|-----7---7---7---7---7---7---7---7-7---------------------------------------|
D|---5-------5-------5-------5-------4---------------------------------------|
A|---------------------------------------------------------------------------|
E|---------------------------------------------------------------------------|
And thatís it...lots of layering...lots of parts...but other than the INTRO
itís pretty easy to play...have fun!!

Comments about this tab

No comments/corrections found. Add your own

Complimentary Christian Ringtones
Dadamobile and CGR have teamed up to bring your favorite Christian artists right to your phone. Sign up today and get 10 complementary ringtones!
Tab Country
Did you know CGR has a sister site w/ country guitar tabs? Well we do! Its called Tab Country. It has a great archive with a lot of country tabs.
Rockin Tabs
Are you looking for a site that has rock guitar tabs? Then Rockintabs.com is the place for you. It is a budding site with many rock guitar tabs. Submit your tab today.
Tab Gallery
Tab Gallery has a compilation of christian, rock, and country tabs all in one place. Come visit us.