Guitar Tabs
song title    band name

Join Us Today!

Don't strum alone...
be a part of the largest online Christian music community. Browse thousands of guitar tabs and chat w/ musicians like yourself.


It's Free!

Extol - Celestial Completion

This tab has been rated a 1.00 out of 5 for accuracy. (2 votes)Sorry, but you must be logged in to rate this tab.
Click here to log-in, or you can click here to register.
(Registration is free)

All songs owned by corresponding publishing company. If you make copies of any song on this website, be sure to report your usage to CCLI.
Author/Artist: Extol
Title: Celestial Completion
Album: Burial
Transcribed by: Filipe Soares
Email: pernao@hotmail.com

NOTE: Try to listen to the song first, it will be a lot easier. 
And I guess there are a few mistakes, if you find them please e-mail me....

Standard Tuning EADGAe

INTRO
Rhythm Guitar
Play these chords 3 times each 
E ||-----------------------
B ||-----------------------
G ||-----------------------
D ||---7--9--10--9--7--5---
A ||---7--9--10--9--7--5---
E ||---5--7--8---7--5--3---

Riff A (0:11)        x2  Riff B (0:20)    x4
E ||------------------|--------------------|---------------------------||
B ||------------------|--------------------|---------------------------||
G ||------------------|----9-7-------------|---------------------------||
D ||---7-9-10/12-9-7--|--7-----10-9-7-7\6--|---------------------------||
A ||------------------|--------------------|---------------------------||
E ||------------------|--------------------|---------------------------||

Rhythm 
Play Very Fast(0:33)
x3 Last time go to A
E ||-------------|--------
B ||-------------|--------
G ||-------------|--------
D ||--7--9--10---|--7--5--
A ||--7--9--10---|--7--5--
E ||--5--7--8----|--5--3--

Riff C (0:33) Play Riff C till 0:59
3 times each note
x3
E ||--------------|------------------------------||
B ||--------------|------------------------------||
G ||--------------|------------------------------||
D ||--7-9-10------|-7--5--7----------------------||
A ||--------------|------------------------------||
E ||--------------|------------------------------||

back to intro (From 1:00 to 1:29) 
Note: At this part there a few riffs I couldn’t get

Riff C (From 1:30 to 1:42)

Riff D (1:42) Play Riff D till 1:54
x3
E ||---------------|-----------------------------||
B ||---------------|-----------------------------||
G ||---------------|-----------------------------||
D ||---------------|-----------------------------||
A ||--9-11-12------|-9--7--9---------------------||
E ||---------------|-----------------------------||

back to intro (From 1:55 to 2:23)
Note: At this part there a few riffs I couldn’t get

Riff E (2:26) Play Riff D till 2:59 Listen the song to get the rhythm
E ||------------------------------------------||
B ||------------------------------------------||
G ||--9/10/12-/10/9---------------------------||
D ||------------------------------------------||
A ||--7/8-/10-/8-/7---------------------------||
E ||------------------------------------------||


E ||-----------------------------------------------------------------------||
B ||-----------------------------------------------------------------------||
G ||-----------------------------------------------------------------------||
D ||-----------------------------------------------------------------------||
A ||-----------------------------------------------------------------------||
E ||-----------------------------------------------------------------------||

Well, you have the most part of it, I didn’t have time to figure out the rest
of it, but enjoy this for a while..

GOD RULZ
Filipe

Comments about this tab

No comments/corrections found. Add your own

Complimentary Christian Ringtones
Dadamobile and CGR have teamed up to bring your favorite Christian artists right to your phone. Sign up today and get 10 complementary ringtones!
Tab Country
Did you know CGR has a sister site w/ country guitar tabs? Well we do! Its called Tab Country. It has a great archive with a lot of country tabs.
Rockin Tabs
Are you looking for a site that has rock guitar tabs? Then Rockintabs.com is the place for you. It is a budding site with many rock guitar tabs. Submit your tab today.
Tab Gallery
Tab Gallery has a compilation of christian, rock, and country tabs all in one place. Come visit us.