Guitar Tabs
song title    band name

Join Us Today!

Don't strum alone...
be a part of the largest online Christian music community. Browse thousands of guitar tabs and chat w/ musicians like yourself.


It's Free!

Extol - Superior

This tab has not yet been rated for accuracy.Sorry, but you must be logged in to rate this tab.
Click here to log-in, or you can click here to register.
(Registration is free)

All songs owned by corresponding publishing company. If you make copies of any song on this website, be sure to report your usage to CCLI.
Author/Artist: Extol
Title: Superior
Album: Burial
Transcribed by: Filipe Soares
Email: pernao@hotmail.com

NOTE: Try to listen to the song first, it will be a lot easier. 
And I guess there are a few mistakes, if you find them please e-mail me....

D Tuning DADGAe

Riff Intro                 x2 
E ||------------------------|-----------------------------------------------||
B ||------------------------|-----------------------------------------------||
G ||------------------------|-----------------------------------------------||
D ||---5-7-5-3-5-3-2-3-2-0--|--5-3-7-3-5-3-7-3-5----------------------------||
A ||------------------------|-----------------------------------------------||
D ||------------------------|-----------------------------------------------||

Main Riff
E ||------------------------|-----------------------------------------------||
B ||------------------------|-----------------------------------------------||
G ||------------------------|-----------------------------------------------||
D ||--5-5-------5-5---------|--3-3-------3-3--------------------------------||
A ||--5-5-----5-5-5-------5-|--3-3-----3-3-3-----3--------------------------||
D ||--5-5-5h7---5-5-5-5h7---|--3-3-3h5---3-3-3h5----------------------------||


This is all I’ve got by now, more to come later....
GOD RULZ
Filipe

Comments about this tab

No comments/corrections found. Add your own

Complimentary Christian Ringtones
Dadamobile and CGR have teamed up to bring your favorite Christian artists right to your phone. Sign up today and get 10 complementary ringtones!
Tab Country
Did you know CGR has a sister site w/ country guitar tabs? Well we do! Its called Tab Country. It has a great archive with a lot of country tabs.
Rockin Tabs
Are you looking for a site that has rock guitar tabs? Then Rockintabs.com is the place for you. It is a budding site with many rock guitar tabs. Submit your tab today.
Tab Gallery
Tab Gallery has a compilation of christian, rock, and country tabs all in one place. Come visit us.