Guitar Tabs
song title    band name

Join Us Today!

Don't strum alone...
be a part of the largest online Christian music community. Browse thousands of guitar tabs and chat w/ musicians like yourself.


It's Free!

This tab has not yet been rated for accuracy.Sorry, but you must be logged in to rate this tab.
Click here to log-in, or you can click here to register.
(Registration is free)

All songs owned by corresponding publishing company. If you make copies of any song on this website, be sure to report your usage to CCLI.
Artist: Stretch Armstrong
Song: Through My Actions
Album: This is Solid State Vol.2
2001 Solid State Records
Tabbed by: Matt Iveson 
E-mail:mxpx.punk@juno.com

I think this might actually be the first song I’ve done right. yeah sure.

Dropped D tuning
riff 1
let it ring
e-----------------------------------------------------
b-----------------------------------------------------
g-----------------------------------------------------
d-0-4-6-7-6-8-0-0-4-6-7-6-1---x2---0------------------
a-0-----------0-0------------------0------------------
D-0-----------0-0------------------0------------------

riff 2 
palm mute
e-----------------------------------------------------
b-----------------------------------------------------
g-----------------------------------------------------
d-0-0-0-0-0-0-0-0-0-1---------------------------------
a-0-0-0-0-0-0-0-0-0-1---4x’s--------------------------
D-0-0-0-0-0-0-0-0-0-1---------------------------------

verse
same as riff 2, 8x’s

riff 3
e------------------------------------------------------
b------------------------------------------------------
g------------------------------------------------------
d-0---1---0---1-1--------------------------------------
a-0---1---0---1-1--------------------------------------
D-0---1---0---1-1--------------------------------------

riff 4, this part is awesome
e------------------------------------------------------
b------------------------------------------------------
g------------------------------------------------------
d-0-0-5-4-0-7-5-4-5-4-1-1-8-7-5-10-8-7-8-7---x6--------
a------------------------------------------------------
D------------------------------------------------------

riff 5
palm mute
e------------------------------------------------------
b------------------------------------------------------
g------------------------------------------------------
d-0------0-0-0-0-0-0-0-0-0-0---------------------------
a-0-x7---0-0-0-0-0-0-0-0-0-0---x4----------------------
D-0------0-0-0-0-0-0-0-0-0-0---------------------------

riff 6
palm mute
e------------------------------------------------------
b------------------------------------------------------
g------------------------------------------------------
d-0-0-0-0-0-0-0-0-0---0---1---10-8-7-8-----------------
a-0-0-0-0-0-0-0-0-0---0---1---------------x4-----------
D-0-0-0-0-0-0-0-0-0---0---1----------------------------

riff 7 
e------------------------------------------------------
b------------------------------------------------------
g--------5--7------------------------------------------
d-0---2--5--7------------------------------------------
a-0---2--3--5---x2-------------------------------------
D-0---2--3--5------------------------------------------

riff 8, this part’s awesome too
e------------------------------------------------------
b------------------------------------------------------
g------------------------------------------------------
d------------------------------------------------------
a-4-6-7-3-5-7-1-1-1-9-7-6-7--x3--softly-on-the-3rd-----
D------------------------------------------------------

riff 9
e------------------------------------------------------
b------------------------------------------------------
g------------------------------------------------------
d------------------------------------------------------
a-5-5-7-8-10-8-7-h8-h7-h8-h7-h8-h7---------------------
D------------------------------------------------------

then play riff 2

then verse


God bless

Comments about this tab

No comments/corrections found. Add your own

Complimentary Christian Ringtones
Dadamobile and CGR have teamed up to bring your favorite Christian artists right to your phone. Sign up today and get 10 complementary ringtones!
Tab Country
Did you know CGR has a sister site w/ country guitar tabs? Well we do! Its called Tab Country. It has a great archive with a lot of country tabs.
Rockin Tabs
Are you looking for a site that has rock guitar tabs? Then Rockintabs.com is the place for you. It is a budding site with many rock guitar tabs. Submit your tab today.
Tab Gallery
Tab Gallery has a compilation of christian, rock, and country tabs all in one place. Come visit us.