Guitar Tabs
song title    band name

Join Us Today!

Don't strum alone...
be a part of the largest online Christian music community. Browse thousands of guitar tabs and chat w/ musicians like yourself.


It's Free!

Relient K - Softer To Me

This tab has been rated a 4.24 out of 5 for accuracy. (21 votes)Sorry, but you must be logged in to rate this tab.
Click here to log-in, or you can click here to register.
(Registration is free)

All songs owned by corresponding publishing company. If you make copies of any song on this website, be sure to report your usage to CCLI.
Song: Softer To Me
Band: Reliant K
Cd: Reliant K
Copyright: 2000 Gotee Music
Tabbed by: Ryanne (evdm@voyager.net)
              
Intro:
First guitar: x4
E|---------------------------------------------------------------------
B|---------------------------------------------------------------------
G|-55-6-5-5565-5----5-------------8------------------------------------
D|---------------666--666--6686-66-6-5565--556-------------------------
A|---------------------------------------------------------------------
E|---------------------------------------------------------------------
              
Second guitar: 
comes in on second time with   F
then 3rd and 5th time play  F  C#  G#  D#
              
Verse: x3
F  C#  G#  D#
then
E|------------------
B|------------------
G|--------6---------
D|---3---6-----6----    then pm G  then F
A|--3---4-----6-----
E|-1---------4------
              
Chorus: (I donít remember how many times you play it)
E|---------------------------------------------------------------------
B|---------------------------------------------------------------------
G|----1----6-6---5-6-6-------------------------------------------------
D|---3-3--6------6-6-6---5-6-5-5-6-------------------------------------
A|--3----4------6------------------------------------------------------
E|-1-----------4--------3----------------------------------------------
              
Then the Loud Part is:
E|---------------------------------------------------------------------
B|-99999999--11-11-11-11-11-11-11-11--13-13-13-13-13-13-13-13--16------
G|---------------------------------------------------------------12-12-
D|---------------------------------------------------------------------
A|---------------------------------------------------------------------
E|---------------------------------------------------------------------
              
E|---------------------------------------------------------------------
B|---------------------------------------------------------------------
G|-13-12-12-12-13------------------------------------------------------
D|---------------------------------------------------------------------
A|---------------------------------------------------------------------
E|---------------------------------------------------------------------
              
Verse
Chorus
Loud Part x2
Intro till end
Chords:
F-133xxx
C#-x466xx
D#-x688xx
G#-466xxx
G-355xxx

Comments about this tab

mcds - 2004-05-03

this is so tight


krutchfan66 - 2004-11-02

dont say that.....


RK911 - 2004-12-10

shut-up


brazilsoccer03 - 2005-01-03

Hey Hey Hey No Fightn'


guitarhockeyman - 2005-04-19

say what?


Grbulldog21 - 2005-08-09

huh wats goin on


beatrum - 2005-09-17

*Chuckles*


Add a comment/correction

Complimentary Christian Ringtones
Dadamobile and CGR have teamed up to bring your favorite Christian artists right to your phone. Sign up today and get 10 complementary ringtones!
Tab Country
Did you know CGR has a sister site w/ country guitar tabs? Well we do! Its called Tab Country. It has a great archive with a lot of country tabs.
Rockin Tabs
Are you looking for a site that has rock guitar tabs? Then Rockintabs.com is the place for you. It is a budding site with many rock guitar tabs. Submit your tab today.
Tab Gallery
Tab Gallery has a compilation of christian, rock, and country tabs all in one place. Come visit us.