Guitar Tabs
song title    band name

Join Us Today!

Don't strum alone...
be a part of the largest online Christian music community. Browse thousands of guitar tabs and chat w/ musicians like yourself.


It's Free!

Dogwood - Pain Is Gone, The

This tab has not yet been rated for accuracy.Sorry, but you must be logged in to rate this tab.
Click here to log-in, or you can click here to register.
(Registration is free)

All songs owned by corresponding publishing company. If you make copies of any song on this website, be sure to report your usage to CCLI.
Tabbed by: G-man(g_man_1000@hotmail.com)
Artist: Dogwood
Album: More than conquerors
Song: The pain is gone.
Tuning: EBGDAD
Copy write: 1999 Tooth and Nail Records
Written by: Dogwood
                         
1x           VERSE/INTRO 4x                          9x 
-----|-------------------------------|-------|------------------------------|
-----|-------------------------------|-------|------------------------------| repeat 
-----|-------------------------------|-------|------------------------------|verse/intro
-0-0-|-5-5-5--10-10-10--1-1-1--3-3-3-|-X-X-X-|-5/6/5--7-6-5/6/5-------------|& the 
-0-0-|-5-5-5--10-10-10--1-1-1--3-3-3-|-X-X-X-|-5/6/5--7-6-5/6/5-pick scrape-| rest.
-0-0-|-5-5-5--10-10-10--1-1-1--3-3-3-|-X-X-X-|-5/6/5--7-6-5/6/5-------------|
Take my rage                                   Believe me when I say...the best for us
CHORUS 4x
-----------------------------|
-----------------------------| then repeat the
-----------------------------|verse/chorus.
--5-5--13-13-8-8-10-10-|
--5-5--13-13-8-8-10-10-|
--5-5--13-13-8-8-10-10-|
SOLO 8x play the last four palm muted.
-----------------------------------------|
-----------------------------------------|
-----------------------------------------|
-5-5--5-5--13-13--5-5--5-5-11-11-|
-5-5--5-5--13-13--5-5--5-5-11-11-|
-5-5--5-5--13-13--5-5--5-5-11-11-|
OUTRO 4x 
-----------------------------------------|
-----------------------------------------|
-----------------------------------------|
-5-5-5--13-13-13-8-8-8-10-10-10-|
-5-5-5--13-13-13-8-8-8-10-10-10-|
-5-5-5--13-13-13-8-8-8-10-10-10-|
Now my pain is gone...

I‘m pretty sure I got this right.. E-mail me if you have any problems with it.
Grant.

Comments about this tab

No comments/corrections found. Add your own

Complimentary Christian Ringtones
Dadamobile and CGR have teamed up to bring your favorite Christian artists right to your phone. Sign up today and get 10 complementary ringtones!
Tab Country
Did you know CGR has a sister site w/ country guitar tabs? Well we do! Its called Tab Country. It has a great archive with a lot of country tabs.
Rockin Tabs
Are you looking for a site that has rock guitar tabs? Then Rockintabs.com is the place for you. It is a budding site with many rock guitar tabs. Submit your tab today.
Tab Gallery
Tab Gallery has a compilation of christian, rock, and country tabs all in one place. Come visit us.