Guitar Tabs
song title    band name

Join Us Today!

Don't strum alone...
be a part of the largest online Christian music community. Browse thousands of guitar tabs and chat w/ musicians like yourself.


It's Free!

This tab has not yet been rated for accuracy.Sorry, but you must be logged in to rate this tab.
Click here to log-in, or you can click here to register.
(Registration is free)

All songs owned by corresponding publishing company. If you make copies of any song on this website, be sure to report your usage to CCLI.
Band: Squad Five*O
Album: Bombs Over Broadway
Song: Bombs Over Broadway
This band is 80s to the max!
Tabbed By Eric Munoz ( hoss9009@hotmail.com for requests )


Chords:
     G5         A#5	   C5	     D5
|-------------------------------------------------------------|
|-------------------------------------------------------------|
|----------------3---------5---------7------------------------|
|----5-----------3---------5---------7------------------------|
|----5-----------1---------3---------5------------------------|
|----3--------------------------------------------------------|

Drum intro (0:00)

Bass intro (0:20)
G	C	D	C (2X)

Guitar intro (0:32)
G	C	D	C (1X)

Pre-verse
	D	D A# C G C A#

Verse 1

         G		 A#  C		A# G	         A#  C  C  A#

         G		 A#  C		A# G	         A#  C  C  A#

         G		 A#  C		A# G	         A#  C  C  A#

         G		   A#  C         A# G	         A# C C A# 

Chorus (2Xs)

         G		      A#  C	A# G	  A#  C  C  A#

         G		      A#  C	A# G	  A#  C  C  A#
Post-chorus
D

C

Verse 2

G
Countdown 5-4-3-2-1.

C

D

C						D D 

G

C

D

C					D D

Pre Verse
	D	D A# C G C A#

Verse 3
        G		A# C                     A# G        A#  C  C  A#

         G		   A# C	       A# G     A#  C  C  A#
	
chorus (2Xs)
         G		      A#  C	A# G	  A#  C  C  A#

         G		      A#  C	A# G	  A#  C  C  A#
Post-chorus
D

C
Verse 4

G

C

D

C						D D

G

C

D

C					D D

Pre-verse 
	D	D A# C G C A#        D A# C G C A#

Slow Chorus
G-C-D-C ( 2Xs)

(This part plays 4xs)
		G	      C

D		       C			    D D
	
C-G

Drum intro ( 3:38)

Guitar intro (1X) (3:44)

Chorus2 (2Xs)

	G
	
	C
	
	D
	
	C


Solo is 2nd time of Chorus2

E|-----------------------------------------------------------------|
B|-----------------------------------------------------15----------|
G|---12-/-10-/-12-/-10-/-12-/10-/-10-------------------------------|
D|-----------------------------------------------------------------|
A|-----------------------------------------------------------------|
E|-----------------------------------------------------------------|

Pre-verse 
	D	D A# C G C A#  

End on G

Order of play:
drum intro
bass intro
guitar intro
pre verse
verse1
chorus
post-chorus
verse2  
pre-verse
verse3
chorus
post chorus
verse4
pre verse
slow chorus
drum intro
guitar intro
chorus2 & solo
pre verse
end on G

If you think this is wrong, feel free to email me and let me know.

Comments about this tab

No comments/corrections found. Add your own

Complimentary Christian Ringtones
Dadamobile and CGR have teamed up to bring your favorite Christian artists right to your phone. Sign up today and get 10 complementary ringtones!
Tab Country
Did you know CGR has a sister site w/ country guitar tabs? Well we do! Its called Tab Country. It has a great archive with a lot of country tabs.
Rockin Tabs
Are you looking for a site that has rock guitar tabs? Then Rockintabs.com is the place for you. It is a budding site with many rock guitar tabs. Submit your tab today.
Tab Gallery
Tab Gallery has a compilation of christian, rock, and country tabs all in one place. Come visit us.