Guitar Tabs
song title    band name

Join Us Today!

Don't strum alone...
be a part of the largest online Christian music community. Browse thousands of guitar tabs and chat w/ musicians like yourself.


It's Free!

Delirious - Touch

This tab has been rated a 5.00 out of 5 for accuracy. (3 votes)Sorry, but you must be logged in to rate this tab.
Click here to log-in, or you can click here to register.
(Registration is free)

All songs owned by corresponding publishing company. If you make copies of any song on this website, be sure to report your usage to CCLI.
Song: Touch
Album: Roaring Lambs
Artist: Delirious?
Authors: Martin Smith & Stuart Garrard
Copyright: 2000 Curious? Music UK
Originally tabbed by: Ian Barker
Re-Tabbed by: Jason Ewert (jewert@valueweb.net)
Updated a third time by: SethD (sethd@sethd.com)

CHORDS:
       E A D G B E         E A D G B E
E     |0 2 2 1 0 0|  E/D# |X 6 9 8 0 0|
Cmaj7 |X 3 5 5 0 0|  D5   |X 5 7 7 0 0|
A2    |X 0 2 2 0 0|  D#   |X 6 8 8 0 0|
C#m7  |X 4 6 6 0 0|  F#m7 |X 9 11 11 0 0|
Bsus4 |X 2 4 4 0 0|  Bbm  |X 1 3 3 2 1|
E5    |X 7 9 9 0 0|

As you might have noticed, a lot of the chords played in this song
are cheater chords - meaning that they are different way of playing
the chords. These chords are much easier to play, particularly in
the chorus and the bridge.  These chords enable you to slide up easily
and thus you will be able to play the chords at the proper timing.

INTRO:
(bass line and this riff)
E|---0-4---0-4--------|---0-4----0-4--------|
B|-0-----0------------|-0------0------------|
G|------------------5-|-------------------5-|
D|--------------------|---------------------|
A|--------------------|---------------------|
E|--------------------|---------------------|
(drums kick in)
then do: E Cmaj7 A2 (x2)

VERSE 1:

E|---0-4---0-4--------|    |---0-4----0-4--------|    |---0-4----0-4--------|
B|-0-----0------------|    |-0------0------------|    |-0------0------------|
G|------------------5-|    |-------------------5-|    |-------------------5-|
D|--------------------|    |---------------------|    |---------------------|
A|--------------------|    |---------------------|    |---------------------|
E|--------------------|    |---------------------|    |---------------------|

                                     E                 Cmaj7     A2
      E|---0-4---0-4----------5|   |---0-4----0-4---0-|---0-5----0-5---0-|
      B|-0-----0---------------|   |-0----------------|------------------|
      G|------------------5----|   |------------------|-5----------------|
      D|-----------------------|   |------------------|------------------|
      A|-----------------------|   |------------------|------------------|
      E|-----------------------|   |------------------|------------------|

  E  Cmaj7     A2             
E|---0-4----0-4---0-|---0-5----0-5---0-|
B|-0----------------|------------------|
G|------------------|-5----------------|
D|------------------|------------------|
A|------------------|------------------|
E|------------------|------------------|


   E                 Cmaj7     A2        E                 Cmaj7     A2
E|---0-4----0-4---0-|---0-5----0-5---0-|---0-4----0-4---0-|---0-5----0-5---0-|
B|-0----------------|------------------|-0----------------|------------------|
G|------------------|-5----------------|------------------|-5----------------|
D|------------------|------------------|------------------|------------------|
A|------------------|------------------|------------------|------------------|
E|------------------|------------------|------------------|------------------|


    C#m7             Bsus4           A2            A2
   E|----0---0----|----0---0----|----0---0----|----0---0----|
   B|--0---0----0-|--0---0----0-|--0---0----0-|--0---0------|
   G|-------------|-------------|-------------|-------------|
   D|-------------|-------------|-------------|-------------|
   A|-------------|-------------|-------------|-------------|
   E|-------------|-------------|-------------|-------------|

CHORUS 1 (play through once, break at the end):
E5  E/D#  C#m7  Cmaj7
E5  E/D#  C#m7  Cmaj7

The following tab is played 2x during the chorus.  The second time, the
last two notes (2 & 4) are not played.
E|---------------------------------------------------------|
B|-5----9--7--5--4---h5--9--7--5--2----h5--9--7--5--1--2--4|
G|---------------------------------------------------------|
D|---------------------------------------------------------|
A|---------------------------------------------------------|
E|---------------------------------------------------------|


2ND VERSE (same chords as the 1st with a little more improv on the riff):
C#m7  Bsus4  A2

Play Chorus 1 again as written except you skip the last phrase and you go straight to the bridge:

BRIDGE:
C#m7  D#  E5  F#m7
C#m7  Bsus4  Bbm  A2  A2
[huge break with just the bass note on E]
[bass riff]
(drums/guitar kick in)

GUITAR SOLO:
   E5                E/D#                  Bsus4
E|--------------------------------------------------------------|
A|--------------------------------------------------------------|
D|--------------------------------------------------------------|
G|--------------------------------------------------------------|
B|--------------------------------------------------------------|
E|-12----16--14--12--11----h12--16--14--12--9----h12--16--14--12|

          C#m7      Cmaj7                            And when...
E|-15--12--7--14--12--7--15--12--7--14--12--7--15--12--14--12--|
B|-------------------------------------------------------------|
G|-------------------------------------------------------------|
D|-------------------------------------------------------------|
A|-------------------------------------------------------------|
E|-------------------------------------------------------------|

CHORUS 2 (same chords as Chorus 1):

The following tab is played 2x during the second chorus:
E|-12----16--14--12--11----16--14--12--9----16--14--12--7|
B|-------------------------------------------------------|
G|-------------------------------------------------------|
D|-------------------------------------------------------|
A|-------------------------------------------------------|
E|-------------------------------------------------------|

OUTRO:
E  Cmaj7  A2 (2x) and then E

That's it!  Please give any corrections, etc.!

Comments about this tab

AAFanGuy25 - 2004-05-21

Here is some minor things that probably is done by a guitar. The song is fine without it but I thought it would be nice to add.

Here is part of the intro/ outro (E Cmaj7 A2)
e--4--8--2--4--7-8-7--2-4-2--4
(optional to slide in between the frets)

Here is the pre-chorus after the C#m B A2 thingy
e--4-5--(repeat as needed)

Then here's the 1st part of the solo (still working on the second part)
e--(5/)-10-10-10-10--12-12 x2
e--12-12--11-11--9-9--7-7 x2 e--9-9
(5/)=optional


Add a comment/correction

Complimentary Christian Ringtones
Dadamobile and CGR have teamed up to bring your favorite Christian artists right to your phone. Sign up today and get 10 complementary ringtones!
Tab Country
Did you know CGR has a sister site w/ country guitar tabs? Well we do! Its called Tab Country. It has a great archive with a lot of country tabs.
Rockin Tabs
Are you looking for a site that has rock guitar tabs? Then Rockintabs.com is the place for you. It is a budding site with many rock guitar tabs. Submit your tab today.
Tab Gallery
Tab Gallery has a compilation of christian, rock, and country tabs all in one place. Come visit us.