Guitar Tabs
song title    band name

Join Us Today!

Don't strum alone...
be a part of the largest online Christian music community. Browse thousands of guitar tabs and chat w/ musicians like yourself.


It's Free!

DC Talk - My Will

This tab has been rated a 5.00 out of 5 for accuracy. (3 votes)Sorry, but you must be logged in to rate this tab.
Click here to log-in, or you can click here to register.
(Registration is free)

All songs owned by corresponding publishing company. If you make copies of any song on this website, be sure to report your usage to CCLI.
My Will
dcTalk
CD: Exodus
c1998 Out of Twisted Roots Music
Tabbed by Steve Cruickshank
postlambjam@hotmail.com


I've seen a few requests for a more complete tab of this song in
various places, and so I thought I would transcribe all the parts
of the song, hopefully without missing anything.  Mainly I wanted
to cover how the chorus and bridge are played, those were the main
parts missing in the other versions.

One guitar is an acoustic played with fingers
The other's electric with clean tone


Intro:
e--------------------------------------|---2----------------
B---2h3---3----3-3---3-----------------|---3----------------
G---------------------------(x many)---|---2----------------
D-------0---0------0---0---------------|---0----------------
A--------------------------------------|---0----------------
E--------------------------------------|--------------------



Verse: (acoustic only)

e-------2------|-0h2-----2----|--------------|-3-----2-0----|
B---3-----3----|-------3------|---3----3-----|---3-------3--|
G-----------2--|-----2--------|------0-----0-|-----0--------|
D---0----------|--------------|--------------|--------------|
A--------------|--------------|--------------|--------------|
E--------------|--------------|---3----------|--------------|
   D                            G

e-------0h2----|--0h2----0----|--------------|--------------|
B-----------3--|--------------|-----2------3-|-------2------|
G-----2-------2|------2-------|--------------|---------2----|
D---0----------|--------------|-------2h4----|--4p2------2--|
A--------------|--------------|--0-----------|--------------|
E--------------|--------------|--------------|--------------|
   D                            A

e-------0h2----|-2----0h2-----|----3---------|-0h2----0-----|
B-----------3--|---3----------|------3-------|----------3---|
G-----2--------|--------------|--0-----0-----|------0-------|
D---0----------|--------------|--------------|--------------|
A--------------|--------------|--------------|--------------|
E--------------|--------------|--------------|--------------|
   D                             G

e--------2-----|--0h2-----2---|--------------|--------------|
B----------3---|--------3---3-|---3---2------|---3----------|
G-----2--------|------2-------|-----2--------|--------------|
D---0----------|--------------|--------------|---0----------|
A--------------|--------------|---0----------|--------------|
E--------------|--------------|--------------|--------------|
   D                              A              D




CHORUS: (acoustic part)

e---------5----|---------5----|---------5----|--------------|
B---5h7-----7--|---5h7-----7--|---5h7-----7-5|------7-------|
G-------7------|-------7------|-------7------|---7----7-----|
D---0----------|---0----------|---5----------|---5----------|
A--------------|--------------|--------------|--------------|
E--------------|--------------|--------------|--------------|
   D                             G

e--------------|--------------|---0h2--------|--------------|
B-----2-------3|------2-------|----------3---|---0----------|
G-----------2--|--------2-----|--------2-----|--------------|
D-------2h4----|--4p2-----2---|---0----------|--------------|
A--0-----------|--------------|--------------|--------------|
E--------------|--------------|--------------|---3----------|
   A                             D               G

e---------5----|---------5----|---------5----|--------------|
B---5h7-----7--|---5h7-----7--|---5h7-----7-5|------7-------|
G-------7------|-------7------|-------7------|---7----7-----|
D---0----------|---0----------|---5----------|---5----------|
A--------------|--------------|--------------|--------------|
E--------------|--------------|--------------|--------------|
   D                             G

e--------------|--------------|
B------2---2h3-|--2-----------|
G--------2-----|--------------|
D----2---------|--------------|
A--0-----------|--0-----------|
E--------------|--------------|
  A

e---3-3--------|--0h2---2-----|--0---0-------|--0h2---------|
B--------------|------3---3---|----3---3-----|--------------|
G--------------|--------------|--------------|--------------|
D---0----------|--0-----------|--0-----------|--0-----------|
A--------------|--------------|--------------|--------------|
E--------------|--------------|--------------|--------------|
   Dsus           D              Dadd9          D



CHORUS: (electric part)

e--------5-----|--------5-----|--------5-----|--------------|
B--5h7-----7---|--5h7-----7---|--5h7-----7---|--------------|
G------7-----7-|------7-----7-|------7-------|--7-----------|
D--------------|--------------|--------------|--------------|
A--------------|--------------|--------------|--------------|
E--------------|--------------|--------------|--------------|
  D                              G

e------9-----9-|------7-7-5-5-|--------------|--------------|
B--------------|--------------|-------3------|---0----------|
G----6---6-6---|-6\4--4-4\2-2-|-----2--------|---0----------|
D--------------|--------------|---0----------|---0----------|
A--0-----------|--------------|--------------|--------------|
E--------------|--------------|--------------|--------------|
  A                              D              G

e--------5-----|--------5-----|--------5-----|--------------|
B--5h7-----7---|--5h7-----7---|--5h7-----7---|--------------|
G------7-----7-|------7-----7-|------7-------|--7-----------|
D--------------|--------------|--------------|--------------|
A--------------|--------------|--------------|--------------|
E--------------|--------------|--------------|--------------|
  D                              G

e------9-----7-|------5-5-5-5-|
B--------------|--------------|
G----6---6/4---|-4\2--2-2-2-2-|
D--------------|--------------|
A--0-----------|--------------|
E--------------|--------------|
  A

e---3--3-3-----|---2--2-2-----|---0--0-0-----|---0h2--------|
B---3--3-3-----|---3--3-3-----|---3--3-3-----|---3----------|
G---2--2-2-----|---2--2-2-----|---2--2-2-----|---2----------|
D----------0---|----------0---|----------0---|--------------|
A--------------|--------------|--------------|--------------|
E--------------|--------------|--------------|--------------|
  Dsus            D              Dadd9          D



In verse 2, the acoustic plays basically the same thing as the
first verse, while the electric plays the chords single-strum:

D  xx0232
G  3x0033
A  x02255



BRIDGE: G  C  F  Em  (x2)

Solo:
e--------------|--------------|--------------|--------------|
B--------------|--------------|--------------|--------------|
G--------------|--------------|--------------|--------------|
D--------------|--2--4--5-----|--------------|--2--4--5-----|
A--------------|--------------|--3-----------|--------------|
E--------------|--------------|--------------|--------------|
   G                             C

e--------------|--------------|--------------|--------------|
B--------------|--------------|--------------|--------------|
G--------------|--------------|--------------|--------------|
D--3-----------|--3-----------|--------------|---2-4-5-4-2-0|
A--------------|----3---5/7---|--7-----------|--------------|
E--------------|--------------|--------------|--------------|
   F                             Em

e--------------|--------------|--------------|--------------|
B--------------|--------------|--------------|--------------|
G--------------|--------------|--------------|--------------|
D--------------|--2--4--5-----|--------------|--2--4--5/7---|
A--------------|--------------|--3-----------|--------------|
E--------------|--------------|--------------|--------------|
   G                             C

e--------------|--------------|--------------|--------------|
B--------------|--------------|--------------|--------------|
G-----------5-4|--------------|--------------|--------------|
D--7-----------|-7--5--3------|--2-----------|--------------|
A--------------|--------------|--------------|--------------|
E--------------|--------------|--------------|--------------|
   F                             Em


There's the tab; everything after the bridge is mainly
just chords being played, by both acoustic and electric.
See the chord file if you want the lyrics and where the
chords go in relation to the words.

Comments about this tab

newsgirl14 - 2005-01-13

Thank you, thank you, thank you! I love it!!!
:-D :`-) ;-D


sivartra - 2005-04-30

this tab is awsome i havnt played it with the cd yet but it sounds great! :-)


sanctusfan14 - 2005-11-14

beautiful


Add a comment/correction

Complimentary Christian Ringtones
Dadamobile and CGR have teamed up to bring your favorite Christian artists right to your phone. Sign up today and get 10 complementary ringtones!
Tab Country
Did you know CGR has a sister site w/ country guitar tabs? Well we do! Its called Tab Country. It has a great archive with a lot of country tabs.
Rockin Tabs
Are you looking for a site that has rock guitar tabs? Then Rockintabs.com is the place for you. It is a budding site with many rock guitar tabs. Submit your tab today.
Tab Gallery
Tab Gallery has a compilation of christian, rock, and country tabs all in one place. Come visit us.