Guitar Tabs
song title    band name

Join Us Today!

Don't strum alone...
be a part of the largest online Christian music community. Browse thousands of guitar tabs and chat w/ musicians like yourself.


It's Free!

This tab has been rated a 5.00 out of 5 for accuracy. (1 vote)Sorry, but you must be logged in to rate this tab.
Click here to log-in, or you can click here to register.
(Registration is free)

All songs owned by corresponding publishing company. If you make copies of any song on this website, be sure to report your usage to CCLI.
What God Does
Skypark
Album: Overbluecity
Tabbed by Steve Cruickshank
postlambjam@hotmail.com


The other version in here was a bit discorrect, here's the
right chords for the song.


Verse: (palmmute)
            B             Ebm
Jump in the mess of human lives undressed
             E      G        B      F#
And sin unconfessed, and see beauty
            B                  Ebm
Look at the sea of misfits and misery
                 E    G        B      A  F#
And cry till you bleed and see beauty


Chorus:
B
That's what God does
Ebm
That's what God does
G#m         F#        E         F#
That's what God does, why can't we?
B
That's what God does
Ebm
That's what God does
G#m         F#        E         F#  B  Ebm  G#m  F#  A
That's what God does, why can't we?


Verse 2:
Waste all the best on the most dishonored guest
When she's unimpressed, and see beauty
Give till you're gone to the least deserving one
And call him your son and see beauty


Bridge:
F#                  B
Everyone I know has failed me
F#                                    G        F#
Should I let them take that cross and nail me?


Solo: (over chorus with key change)
e-----------------------------13----16b18r16---------------------
B---12b14r12----------14---13----13------------------------------
G------------13-10-13--------------------------------------------
D----------------------------------------------------------------
A----------------------------------------------------------------
E----------------------------------------------------------------
    C#                     Fm

e--------------------------------16------12-14-14b16r14-----14-12-------------
B-------14-16-16b18r16-14-----------14------------------14-----------12-13-14-
G---/15-------------------15-13-----------------------------------13----------
D-----------------------------------------------------------------------------
A-----------------------------------------------------------------------------
E-----------------------------------------------------------------------------
              Bbm                G#            F#              A           
C#


Chorus 2:
C#
That's what God does
Fm
That's what God does
Bbm         G#        F#        G#
That's what God does, why can't we?
C#
That's what God does
Fm
That's what God does
Bbm         G#        F#        G#
That's what God does, why can't we?
Bbm G# F#        G#   C#
       Why can't we?



Chords:
B    x244xx or 799xxx
Ebm  x688xx
E    022xxx
G    355xxx

etc. use power chords

Comments about this tab

No comments/corrections found. Add your own

Complimentary Christian Ringtones
Dadamobile and CGR have teamed up to bring your favorite Christian artists right to your phone. Sign up today and get 10 complementary ringtones!
Tab Country
Did you know CGR has a sister site w/ country guitar tabs? Well we do! Its called Tab Country. It has a great archive with a lot of country tabs.
Rockin Tabs
Are you looking for a site that has rock guitar tabs? Then Rockintabs.com is the place for you. It is a budding site with many rock guitar tabs. Submit your tab today.
Tab Gallery
Tab Gallery has a compilation of christian, rock, and country tabs all in one place. Come visit us.