Guitar Tabs
song title    band name

Join Us Today!

Don't strum alone...
be a part of the largest online Christian music community. Browse thousands of guitar tabs and chat w/ musicians like yourself.


It's Free!

This tab has been rated a 5.00 out of 5 for accuracy. (1 vote)Sorry, but you must be logged in to rate this tab.
Click here to log-in, or you can click here to register.
(Registration is free)

All songs owned by corresponding publishing company. If you make copies of any song on this website, be sure to report your usage to CCLI.
"Who will you follow"
performed by WhiteCross
from the album whitecross & by demand
copyright (c) 1987 girder music/BMI & Scottzilla
tab by: John Martindale (uthubomb@yahoo.com)  E-Mail Me!!!!!!!!!!

here is the bast song ever wrote!!
to play this song tune your guitar down a half a step.
I did not do the main solo and the ending one but other then 
that this tab is complete. so here we go...        


riff 1, (guitar 1)       intro
---------------------------------------------
---------------------------------------------
--9--7------------7--7-----------------------
--7--7------------5--4-----------------------
-----0-0-0-0-0-0-----0-0-0-0-0-0-------------
---------------------------------------------
      |  mute  |       |  mute  |

riff 2, (guitar 2)  after riff one has almost gone 2 times do
this
---------------------------------------------
---------------------------------------------
---------------------------------------------
--9-10-9-7-5--7------------------------------
--7-8--7-5-3--7------------------------------
--------------5------------------------------
               let ring...        

riff 3, (guitar 2) intro solo         start going crazy :)
------------------17-19-20p19p17--------------------------------------
--b(22)*--20b(22)----------------20p19p17----------------------------
------------------------------------------20p19-17~~~~----------------
-------------------------------------------------------19~17~~~~------
----------------------------------------------------------------------
----------------------------------------------------------------------...
*note: on the 20th fret bend up to the note at fret 22 then hit the string
then bend back down to the 20th fret. just lison to it to find out what i mean.

....-------------------------------------5-7-8p7p5--------------------------
--20b(22)-17h19h20b(22)-17h19h20b20b(23)---------8p7p5---------------20b...
------------------------------------------------------8p7p5----------------
-----------------------------------------------------------8p7p5-5h7LetRing
---------------------------------------------------------------------------
---------------------------------------------------------------------------
this is not perfect, if it's to bad for you, just start soloing with the
"A" pentatonic scale, in this song that is about all they use, I wrote
down the scale below 

here is the "A" Pentatonic scale they solo with 
-----------------------------------------17-19-20--
--------------------------------17-19-20-----------
-----------------------17-19-20--------------------
-----------------17-19-----------------------------
-----------17-19-----------------------------------
--17-19-20-----------------------------------------

O.K back to the song :)

riff 4, (guitar 1)            verse 1
-----------------------------------------------------------------
-----------------------------------------------------------------
-----------------------------------------------------------------
--7--x-7-5-7--x-7-5-7--x-7-7-5-7--10*9*7*-7-10*9*7-7--7----------
--7--x-7-5-7--x-7-5-7--x-7-7-5-7----------5--------5--7-riff 5*--
--5--x-5---5--x-5---5--x-5-5---5----------------------5----------...
somthing like that. you try to figer it out. :)  *pinch to get that sound

*riff 5 (Guitar 2)
-------------------------------
-------------------------------
------19b21-19-17-19-17~~~~~~~-
-------------------------------
-------------------------------
-------------------------------

....-------------------------------------------------------
----------------------------------------------------------
----------------------------------------------------------
--7--x-7p5-7--x-7p5-7--x-7-7p5-7--10*9*7*-7-10*9*7-7--7---
--7--x-7p5-7--x-7p5-7--x-7-7p5-7----------5--------5--7---
--5--x-5---5--x-5---5--x-5-5---5--------------------------...

....----------------------------------
--------------------------------------
-------5-4-2----5-4-2-----------------
----3--5-4-2-3--5-4-2-7---------------
----3--------3--------7---------------
----1--------1--------5-let ring------

riff 6 (guitar 1)     bridge
----------------------------------------------
----------------------------------------------
-------5-4-2----5-4-2---5-4-2-----------------
----3--5-4-2-3--5-4-2-5-5-4-2--5--------------
----3--------3--------5--------5--------------
----1--------1--------3--------3--let ring----

riff 1, (guitar 1)        chorus
---------------------------------------------        -------
---------------------------------------------        -------
--9--7------------7--7---------------------at the end-------and guitar 2
--7--7------------5--4----------------------of chorus--7----duz riff 7*
-----0-0-0-0-0-0-----0-0-0-0-0-0------------- do this--7----
---------------------------------------------        --5----
      |  mute  |       |  mute  |                    let ring  
                                                              
*riff 7, (guitar 2)    end of chorus mini solo
---20b(22)-20-20p19p17------------------------------------------------
----------------------20p19p17----------------------------------------
------------------------------20p19p17p-------------------------------
---------------------------------------19p17--------------------------
--------------------------------------------20p19p17------------------
----------------------------------------------------20p19p17p15h17----

riff 4, (guitar 1)                verse 2
----------------------------------------------------------------
----------------------------------------------------------------
----------------------------------------------------------------
--7--x-7-5-7--x-7-5-7--x-7-7-5-7--10*9*7*-7-10-9-7-7--7---------
--7--x-7-5-7--x-7-5-7--x-7-7-5-7----------5--------5--7---------
--5--x-5---5--x-5---5--x-5-5---5----------------------5---------...
somthing like that. you try to figer it out. :)  *pinch to get
that sound

....-------------------------------------------------------
----------------------------------------------------------
----------------------------------------------------------
--7--x-7p5-7--x-7p5-7--x-7-7p5-7--10*9*7*-7-10*9*7-7--7---
--7--x-7p5-7--x-7p5-7--x-7-7p5-7----------5--------5--7---
--5--x-5---5--x-5---5--x-5-5---5--------------------------...

....----riff-8*------------------------
--------------------------------------
-------5-4-2----5-4-2-----------------
----3--5-4-2-3--5-4-2-7---------------
----3--------3--------7---------------
----1--------1--------5-let ring------

*riff 8 (guitar 2)
----------------------------------17h19h20p19p17--------------------20b(21)
-(22)*20-20b(22)~~~-22p20p17--------------------20p19p17------------------
----------------------------19~~~~----------------------20p19p17~~~~------
--------------------------------------------------------------------------
--------------------------------------------------------------------------
--------------------------------------------------------------------------
bend down.

riff 5 (guitar 1)    brige
----------------------------------------------
----------------------------------------------
-------5-4-2----5-4-2---5-4-2-----------------
----3--5-4-2-3--5-4-2-5-5-4-2--5--------------
----3--------3--------5--------5--------------
----1--------1--------3--------3--let ring----

riff 1, (guitar 1)       chorus
---------------------------------------------
---------------------------------------------
--9--7------------7--7-----------------------
--7--7------------5--4-----------------------
-----0-0-0-0-0-0-----0-0-0-0-0-0-------------
--------------------------------------------- then main solo
then do
chorus
      |  mute  |       |  mute  |             again then ending
solo.

note:
riff 1: intro and chorus
riff 2: just in intro
riff 3: intro solo
riff 4: verse 
riff 5: verse 1 mini lick
riff 6: brige
riff 7: end of chorus mini solo
riff 8: verse 2 lick
riff 9: anther verse 2 mini lick

WOW i'm dun!! I can play this to the cd and all so it should be pretty good
more WhiteCross and Stryper, Tourniquet, Rez and Blackball, Split Level
Spy Glass Blue, Six Feet Deep and Leaderdogs for the blind tabs to come!!!!
I got songs from all of those figerd out it's just geting them it on paper.
JohnMartindale      JamForTheLamb:)

Comments about this tab

rishicaf - 2006-08-08

Hey...can anyone send me the chords for You Will Find It There from the album In The Kingdom. Is my fav. song...I really need help with it.
Thanks God bless... rishicaf@yahoo.com


Add a comment/correction

Complimentary Christian Ringtones
Dadamobile and CGR have teamed up to bring your favorite Christian artists right to your phone. Sign up today and get 10 complementary ringtones!
Tab Country
Did you know CGR has a sister site w/ country guitar tabs? Well we do! Its called Tab Country. It has a great archive with a lot of country tabs.
Rockin Tabs
Are you looking for a site that has rock guitar tabs? Then Rockintabs.com is the place for you. It is a budding site with many rock guitar tabs. Submit your tab today.
Tab Gallery
Tab Gallery has a compilation of christian, rock, and country tabs all in one place. Come visit us.