Guitar Tabs
song title    band name

Join Us Today!

Don't strum alone...
be a part of the largest online Christian music community. Browse thousands of guitar tabs and chat w/ musicians like yourself.


It's Free!

This tab has not yet been rated for accuracy.Sorry, but you must be logged in to rate this tab.
Click here to log-in, or you can click here to register.
(Registration is free)

All songs owned by corresponding publishing company. If you make copies of any song on this website, be sure to report your usage to CCLI.
We Know What's Right
by Whitecross
Album: In the Kingdom
Copyright 1991 Star Song, a div. of Star Song Communications
Submitted by: Cody Pitre, cpitre@intop.net
for more tabs check out: http://www.intop.net/~cpitre/index.html
---------------------------------------------------------------
USE POWER CHORDS
Tune guitar down half a step.



 h:= hammer
 p:= pull 
 b:= bend

Intro & Chorus:      
[**intro only**]                                      E   D  E
e--------------|---------------|-----------|--------|-0-----------
b--------------|---------------|-----------|--------|-0-----------
g--------------|-----------2-4-|------2-4--|---2----|-1-----------
d---2h4p2h4p2h4|--14\-2h4--2-4-|--2-4-2-4--|-4-2-4-2|-2---4--6----
A--------------|--14\-2h4------|--2-4------|-4---4-2|-2---5--7----
E--------------|---------------|-----------|--------|-0-----------
[**************]

                                        E   D  E  A/E E
e|---------------|-----------|--------|-0---------------
b|---------------|-----------|--------|-0---------------
g|-------2-4-----|------2-4--|---2----|-1---------------
d|--2h4--2-4-----|--2-4-2-4--|-4-2-4-2|-2---4--6---7-6--
A|--2h4----------|--2-4------|-4---4-2|-2---5--7---7-7--
E|---------------|-----------|--------|-0---------------

Verses:
(best guess)                                   E        D   A   E   F#
e--------|------------|---------|-----------|--0----|----------------------
b--------|------------|---------|-----------|--0----|----------------------
g--------|-b2---------|---------|-b2--------|--1----|---2---2----------------
d-2h4-4-4|----2--4-4--|--2h4-4-4|----2--4-4-|--2----|---0---2---2---4----------
A--------|------------|---------|-----------|--2----|-------0---2---4---------
E-2------|--2---------|--2------|--2--------|--0----|-----------0---2--------
Your love for the city  .....


F# riff(for the Pre-chorus)
e-----|------------|--------------------|------
b-----|------------|-----------------14-|------
g-----|-----2--4/6-|---------14--16--14-|------
d--4--|--4--2--2/4-|---------14--16-----|------
A--4--|--4---------|---4--4-------------|------
E--2--|------------|-0-2--2-------------|------


Bridge:
   A                          B                               A
e--------------------------------|----------|--------------------
b--------------------------------|----------|--b4----------------
g--2--------------------------4--|----------|-----4-----------2--
d--2--------------------------4--|----------|-------4-2\1-----2--repeat
A--0--------------------------2--|----------|--------------2--0--
E--------------------------------|----------|--------------------
     if you know so well the right thing to do...

Your love for the city
                     E
Full of sin,what a pity
                      D      A
When you arrive, they don't know
D    E   F#
who you are


You came unto your own
                          E
God's love will know be shown
                             D
They don't know You're the bright
 A  D   E    F#
and morning star

Pre_Chorus
B      E               F# riff
  So blinded by their law
A       E          B          D
  Their hope will burn like straw

Chorus
We know what's right

We'll stand and fight
E                 D  E
It's time to rise

Come on and see the victory
E                 D E A/E  E
before your eyes


Bridge
A         
  If you know so well 
      B
  the right thing to do
A                       B
  For you not to do is wrong



The very long guitar riff............
(*both guitars play together*)

Gtr.1
e-------------------|-------------------------------
b-------------------|-------------------------------
g----------2--------|----------2--------------------
d--------2---4--2--2|--------2---4--2--2------------repeat
A--2--4-------------|--2--4-------------------------
E-------------------|-------------------------------

Gtr.2
e-------------------|-------------------------------
b-------------------|-------------------------------
g----------2----2-6-|--------6-9-6------6-----------
d--------2--------4-|--6--7---------9---------------repeat
A--2--4-------------|-------------------------------
E-------------------|-------------------------------


as for the solos, I'm no Rex Carroll

Comments about this tab

No comments/corrections found. Add your own

Complimentary Christian Ringtones
Dadamobile and CGR have teamed up to bring your favorite Christian artists right to your phone. Sign up today and get 10 complementary ringtones!
Tab Country
Did you know CGR has a sister site w/ country guitar tabs? Well we do! Its called Tab Country. It has a great archive with a lot of country tabs.
Rockin Tabs
Are you looking for a site that has rock guitar tabs? Then Rockintabs.com is the place for you. It is a budding site with many rock guitar tabs. Submit your tab today.
Tab Gallery
Tab Gallery has a compilation of christian, rock, and country tabs all in one place. Come visit us.