Guitar Tabs
song title    band name

Join Us Today!

Don't strum alone...
be a part of the largest online Christian music community. Browse thousands of guitar tabs and chat w/ musicians like yourself.


It's Free!

Watermark - Take Me There

This tab has not yet been rated for accuracy.Sorry, but you must be logged in to rate this tab.
Click here to log-in, or you can click here to register.
(Registration is free)

All songs owned by corresponding publishing company. If you make copies of any song on this website, be sure to report your usage to CCLI.
Song: Take Me There
Artist: Watermark
Album: Watermark
Copyright 1997 Rocketown Music/Sweater Weather Music (ASCAP)
Tabbed by: Hank Miller (ehm88@aol.com)

Intro riff:
                                                                             
E||-----------------------|-------------------------||----------------------|
B||-------7---------------|------7------------------||------7---------------|
G||*-/7-------7\-5--------|--/4------4--4\-2--2----*||-/7-------7\-5--------|
D||*----------------------|------------------------*||----------------------|
A||-----------------------|-------------------------||----------------------|
E||-----------------------|-------------------------||----------------------|


                                                                       
------------------------|----------------------|---------------------||
------7-----------------|------7---------------|---------------------||
-/4-------4--4\-2--2----|--/7------7\-5--------|--4---5\--2----------||
------------------------|----------------------|---------------------||
------------------------|----------------------|---------------------||
------------------------|----------------------|---------------------||


Chorus
        D                                        A/D
Take me there to the place where You are take me there, take me there
D                     A/D
I just wanna be where You are
       D                               A/D
Oh and hide me in Your shelter hide me here, hide me here
D                         A/D
I just wanna be where You are


Verse
         G                          A
You have buried my sin in the depths, my Lord
           G                   A       D
And You've covered me from the furious storm
           G                       A
And You've kept me in the cleft of Your rock
           G                    A        D
And You've loved me there right from the start!


Bridge
        G                       D
You are here and I can feel You, I just love to be where You are
G                                      D
Hide me in Your shelter, hide me here, I just love to be where You are


Outro:  ad lib intro riff/vocals and end


Song structure:
Intro, chorus 2x, verse, chorus, verse, chorus, bridge, chorus 2x, outro


Song notes:
The timing is tricky on the verse, it's like this starting with "buried",
there is a 2 beat measure thrown in after "storm"
|1 2 3 4|1 2 3 4|1 2 3 4|1 2|  repeat
 G     A       G   A D         repeat


Chord formations:
D:   xx0323
A/D: xx0220
A:   x03330
G:   320033

Comments about this tab

No comments/corrections found. Add your own

Complimentary Christian Ringtones
Dadamobile and CGR have teamed up to bring your favorite Christian artists right to your phone. Sign up today and get 10 complementary ringtones!
Tab Country
Did you know CGR has a sister site w/ country guitar tabs? Well we do! Its called Tab Country. It has a great archive with a lot of country tabs.
Rockin Tabs
Are you looking for a site that has rock guitar tabs? Then Rockintabs.com is the place for you. It is a budding site with many rock guitar tabs. Submit your tab today.
Tab Gallery
Tab Gallery has a compilation of christian, rock, and country tabs all in one place. Come visit us.