Guitar Tabs
song title    band name

Join Us Today!

Don't strum alone...
be a part of the largest online Christian music community. Browse thousands of guitar tabs and chat w/ musicians like yourself.


It's Free!

Watermark - Everything

This tab has not yet been rated for accuracy.Sorry, but you must be logged in to rate this tab.
Click here to log-in, or you can click here to register.
(Registration is free)

All songs owned by corresponding publishing company. If you make copies of any song on this website, be sure to report your usage to CCLI.
Everything
Artist: Watermark
Album: Watermark
c1998 Rocketown Records
Words and Music by Nathan & Christy Nockels
Transcribed by Scott Killingsworth


Capo 2nd Fret.  Chords not transcripted, given open.

Playing in this position, and the correct strumming pattern is what makes
this song.  Listen to the song, and pay attention to detail.  Use index
finger for A/C#, hammer with ring finger or pinky.  Use thumb wrap on 2nd
fret for D/F#. The basic pattern repeats through the entire song.  The beat
is not straight time on guitar, it's syncapated somewhat.  Play with feel.

Intro:

Palm mute between the two hammered A/C#

    A/C#       D/F#   E  (Repeat 5 times) 5th time end with  A    D    A
e:--x----x-----2------0--------------------------------------0----2----0-----------
B:--2----2-----3------0--------------------------------------2----3----2-----------
G:--2----2-----2------1--------------------------------------2----2----2-----------
D:--2----2-----0------2--------------------------------------2----0----2-----------
A:--2h4--2h4---0------2--------------------------------------0----x----0-----------
E:--0----0-----2------0--------------------------------------x----x----x-----------
                              

Verse 1:

     A/C#         D/F#  E         A/C#          D/F#        E                           
e:----x-----x------2----0----------x----x--------2----------0--------------------
B:----2-----2------3----0----------2----2--------3----------0--------------------
G:----2-----2------2----1----------2----2--------2----------1--------------------
D:----2-----2------0----2----------2----2--------0----------2--------------------
A:----2h4---2h4----0----2----------2h4--2h4------0----------2--------------------
E:----0-----0------2----0----------0----0--------2----------0--------------------

	Everything,    Lord I bring everything,   I lift my hands and show You 

     A/C#          D/F#          E            A/C#         D/F#  E         
e:----x-----x-------2------------0-------------x-----x------2----0-----------
B:----2-----2-------3------------0-------------2-----2------3----0-----------
G:----2-----2-------2------------1-------------2-----2------2----1-----------
D:----2-----2-------0------------2-------------2-----2------0----2-----------
A:----2h4---2h4-----0------------2-------------2h4---2h4----0----2-----------
E:----0-----0-------2------------0-------------0-----0------2----0-----------

      what I bring,  I bring You  everything


Verse 2:

     A/C#         D/F#  E         A/C#          D/F#          E                           
e:----x-----x------2----0------------x----x--------2----------0--------------
B:----2-----2------3----0------------2----2--------3----------0--------------
G:----2-----2------2----1------------2----2--------2----------1--------------
D:----2-----2------0----2------------2----2--------0----------2--------------
A:----2h4---2h4----0----2------------2h4--2h4------0----------2--------------
E:----0-----0------2----0------------0----0--------2----------0--------------

      Everything,    Lord I give     everything     Your heart rejoices and the 

     A/C#         D/F#  E                 A       D      A                           
e:----x-----x------2----0-----------------0-------2------0-------------------
B:----2-----2------3----0-----------------2-------3------2-------------------
G:----2-----2------2----1-----------------2-------2------2-------------------
D:----2-----2------0----2-----------------2-------0------2-------------------
A:----2h4---2h4----0----2-----------------0----  -x------0-------------------
E:----0-----0------2----0-----------------x-------x------x-------------------

      angels sing      When I bring everything


Chorus:


E         D
All of my heart I give
E             F#m           E
My life is to You an open door
                               (I play open D to barre C#m at 4th fret, to barre C at 3rd fret to
              D   C#m     C    to barre B at 2nd fret)               
Spirit You're welcome to walk right through
     B      
And take with You...

Verse 3:

     A/C#         D/F#  E         A/C#          D/F#          E                           
e:----x-----x------2----0------------x----x--------2----------0--------------
B:----2-----2------3----0------------2----2--------3----------0--------------
G:----2-----2------2----1------------2----2--------2----------1--------------
D:----2-----2------0----2------------2----2--------0----------2--------------
A:----2h4---2h4----0----2------------2h4--2h4------0----------2--------------
E:----0-----0------2----0------------0----0--------2----------0--------------

      Everything,    Lord I bring    everything            All I want is for 

     A/C#         D/F#    E                 A       D      A                           
e:----x-----x------2------0-----------------0-------2------0-----------------
B:----2-----2------3------0-----------------2-------3------2-----------------
G:----2-----2------2------1-----------------2-------2------2-----------------
D:----2-----2------0------2-----------------2-------0------2-----------------
A:----2h4---2h4----0------2-----------------0----  -x------0-----------------
E:----0-----0------2------0-----------------x-------x------x-----------------

      You to be    To be my            everything

Chorus:

E         D
All of my heart I give
E             F#m           E
My life is to You an open door
                               (I play open D to barre C#m at 4th fret, to barre C at 3rd fret to
              D   C#m     C    to barre B at 2nd fret)               
Spirit You're welcome to walk right through
     B      
And take with You...


Solo: 


     A/C#         D/F#  E         A/C#          D/F#          E                           
e:----x-----x------2----0------------x----x--------2----------0--------------
B:----2-----2------3----0------------2----2--------3----------0--------------
G:----2-----2------2----1------------2----2--------2----------1--------------
D:----2-----2------0----2------------2----2--------0----------2--------------
A:----2h4---2h4----0----2------------2h4--2h4------0----------2--------------
E:----0-----0------2----0------------0----0--------2----------0--------------
    

     A/C#         D/F#  E                 A       D      A                           
e:----x-----x------2----0-----------------0-------2------0-------------------
B:----2-----2------3----0-----------------2-------3------2-------------------
G:----2-----2------2----1-----------------2-------2------2-------------------
D:----2-----2------0----2-----------------2-------0------2-------------------
A:----2h4---2h4----0----2-----------------0----  -x------0-------------------
E:----0-----0------2----0-----------------x-------x------x-------------------



(repeat of) Verse 1:

     A/C#         D/F#  E         A/C#          D/F#        E                           
e:----x-----x------2----0----------x----x--------2----------0----------------
B:----2-----2------3----0----------2----2--------3----------0----------------
G:----2-----2------2----1----------2----2--------2----------1----------------
D:----2-----2------0----2----------2----2--------0----------2----------------
A:----2h4---2h4----0----2----------2h4--2h4------0----------2----------------
E:----0-----0------2----0----------0----0--------2----------0----------------

	Everything,    Lord I bring everything,      I lift my hands and show You 

     A/C#          D/F#          E            A/C#         D/F#  E         
e:----x-----x-------2------------0-------------x-----x------2----0-----------
B:----2-----2-------3------------0-------------2-----2------3----0-----------
G:----2-----2-------2------------1-------------2-----2------2----1-----------
D:----2-----2-------0------------2-------------2-----2------0----2-----------
A:----2h4---2h4-----0------------2-------------2h4---2h4----0----2-----------
E:----0-----0-------2------------0-------------0-----0------2----0-----------

      what I bring,  I bring You  everything   I   bring you everything  OH




(repeat of)Verse 3:

     A/C#         D/F#  E         A/C#          D/F#          E                           
e:----x-----x------2----0------------x----x--------2----------0--------------
B:----2-----2------3----0------------2----2--------3----------0--------------
G:----2-----2------2----1------------2----2--------2----------1--------------
D:----2-----2------0----2------------2----2--------0----------2--------------
A:----2h4---2h4----0----2------------2h4--2h4------0----------2--------------
E:----0-----0------2----0------------0----0--------2----------0--------------

      Everything,    Lord I bring    everything            All I want is for 

     A/C#         D/F#  E                    A/C#          D/F#        E    A
e:----x-----x------2----0---------------------x----x--------2----------0----0--
B:----2-----2------3----0---------------------2----2--------3----------0----2--
G:----2-----2------2----1---------------------2----2--------2----------1----2--
D:----2-----2------0----2---------------------2----2--------0----------2----2--
A:----2h4---2h4----0----2---------------------2h4--2h4------0----------2----0--
E:----0-----0------2----0---------------------0----0--------2----------0----x--

      You to be     To be my             everything              To be my everything

      D       A
e:----2-------0------------------
B:----3-------2------------------
G:----2-------2------------------
D:----0-------2------------------
A:----x-------0------------------
E:----x-------x------------------
     Yea,  Yea

Comments about this tab

No comments/corrections found. Add your own

Complimentary Christian Ringtones
Dadamobile and CGR have teamed up to bring your favorite Christian artists right to your phone. Sign up today and get 10 complementary ringtones!
Tab Country
Did you know CGR has a sister site w/ country guitar tabs? Well we do! Its called Tab Country. It has a great archive with a lot of country tabs.
Rockin Tabs
Are you looking for a site that has rock guitar tabs? Then Rockintabs.com is the place for you. It is a budding site with many rock guitar tabs. Submit your tab today.
Tab Gallery
Tab Gallery has a compilation of christian, rock, and country tabs all in one place. Come visit us.