Guitar Tabs
song title    band name

Join Us Today!

Don't strum alone...
be a part of the largest online Christian music community. Browse thousands of guitar tabs and chat w/ musicians like yourself.


It's Free!

This tab has not yet been rated for accuracy.Sorry, but you must be logged in to rate this tab.
Click here to log-in, or you can click here to register.
(Registration is free)

All songs owned by corresponding publishing company. If you make copies of any song on this website, be sure to report your usage to CCLI.
Author/Artist: The Waiting 
Title: Beautiful Blood
Album: The Waiting
Transcribed by: Erv
Email: bobdatomato@eudoramail.com

Tremolo is the weird effect that they use on the guitar 
there's also a flute in the mix
enjoy

Riff 1
---------------------------------------------------
-----1-------1-----1-----0-----1-----1-----1-----0-
---0-------2-----0-----0-----2-----0-----2-----0---
---------3-----------------3-----------3-----------
-3-------------3-----------------3-----------------
---------------------3-----------------------3-----
 C     F       C     G     F     C     F     G                  
             

Riff 2
-------------------------
-----1-----1-----0-----1-
---2-----0-----0-----2---
-3-----------------2-----
-------3-----------------
-------------3-----------
 F     C     G     Am                                           
             

Riff 3
-------------------------
-----1-----1-----0-----1-
---2-----0-----0-----0---
-3-----------------------
-------3-----------3-----
-------------3-----------
 F     C     G     C                                            
             

These are the 3 basic riffs that are used through out the song so to make
this as easy to read as possible I put the riffs in where you should start
to play them and the chords so that you can follow along with the riffs

intro (riff 1) C  F  C  G  F  C  F  G

Verse:
riff 1 2x
(C  F  C  G  F  C  F  G) x2

riff 2 3x
(F  C  G  Am) x3

riff 1
C  F  C  G  F  C  F  G

Verse 2:
(same as the 1st verse)

then:
riff 2
(F  C  G  Am) x4

riff 3
F  C  G  C

riff 1 C F C G F C F G                   riff 3  F C G C

Comments about this tab

No comments/corrections found. Add your own

Complimentary Christian Ringtones
Dadamobile and CGR have teamed up to bring your favorite Christian artists right to your phone. Sign up today and get 10 complementary ringtones!
Tab Country
Did you know CGR has a sister site w/ country guitar tabs? Well we do! Its called Tab Country. It has a great archive with a lot of country tabs.
Rockin Tabs
Are you looking for a site that has rock guitar tabs? Then Rockintabs.com is the place for you. It is a budding site with many rock guitar tabs. Submit your tab today.
Tab Gallery
Tab Gallery has a compilation of christian, rock, and country tabs all in one place. Come visit us.