Guitar Tabs
song title    band name

Join Us Today!

Don't strum alone...
be a part of the largest online Christian music community. Browse thousands of guitar tabs and chat w/ musicians like yourself.


It's Free!

Velasquez, Jaci - Un Lugar Celestial (A Heavenly Place)

This tab has been rated a 4.50 out of 5 for accuracy. (2 votes)Sorry, but you must be logged in to rate this tab.
Click here to log-in, or you can click here to register.
(Registration is free)

All songs owned by corresponding publishing company. If you make copies of any song on this website, be sure to report your usage to CCLI.
"UN LUGAR CELESTIAL (A HEAVENLY PLACE)"                                
By: Jaci Velasquez                              
Album: "Heavenly Place"                        
Written by:  Mark Heimermann, Regie Hamm, Bob Farrell, David Velasquez         
(C)1996 Fun Attic Music/ASCAP/McSpadden-Smith Music LLC/SESAC/Summerdawn
Music LLC/Bob Farrell Music/ASCAP/Word Music/ASCAP
Tab: Chris Rickman  (crickman@bellsouth.net) Version 3.0.3


INTRO:
                Emin                        Amin7                 Dsus
  q q q   e e   e e e q e e e   q e q Q     q e q e e e   q e q q  e
|---------2-3-|+3---------0-2-|-3---0-2-/-|-5---3---0-2-|-3---0-3--3-
|-r-r-3/5-----|-0-----0-0-0-0-|-0---0-0---|-5---1-1-----|-1---1-1--3-
|-------------|---0---0---0---|-0---0-----|-5-----------|-0---0-0--2-
|-------------|-----2-----2---|-----------|-------------|----------0-
|-------------|---------------|-----------|-0-0---------|-0-0--------
|-------------|-0-------------|-0-0-------|-------------|------------

    D   Dadd9               Bsus        B7    Bmin7          Bmin/E
 +e q q q e  +e q q e e e   e e e q e e e   q s E  e e s s   Q q Q  
|-3-2-2-0-0-|-0---------0-|---------7-----|-----5--3---2h3h|-2-------
|-3-3-3-3-3-|-3-3-----3---|-7-7---7---r 4-|-4-3------r-----|---3-----
|-2-------2-|-2-2-2-2-----|-9-9-9-------2-|-2--------------|-----2-/-
|-0-------0-|-0-----------|-9-----------4-|-4--------------|---------
|-----------|-------------|-------------2-|-2--------------|---------
|-----------|-------------|-7-----------^-|-^--------------|-0-------
                                                             let ring
  Emin        D/E          Emin
  Q   q Q     e e e q Q    w
|-----------|------------|------------
|-5---5-----|-3-----3----|-0----------
|-4---4-4-\-|-2-2---2----|-0----------
|-5---------|-4---4---4\-|-2----------
|-----------|------------|-2----------
|-0---------|-0----------|-0----------


1st VERSE

  Emin    Emin/maj7   G/E         A9
  q e q q e  +q e q q e  +q e q q e   q e q q e
|-----3-3-3-|-3---3-3-3-|-3---3-3-3-|+3---3-3-3---
|-----5-5-4-|-4---4-4-3-|-3---3-3-2-|+2---2-2-2---
|---4---4-4-|-4---4-4-4-|-4---4-4-4-|+4---4-4-4---
|-2-------2-|-2-2-----2-|-2-2-------|---2---------
|-----------|-----------|-----------|-0-----------
|-----------|-----------|-----------|-------------

     
  Amin7             B7    Emin              B7
  e e e q q e   e Q e Q   e e e q q e   Q e q q
|---------3---|-3---2---|---------0---|-0---2------
|-------1-----|-1-r---r-|-------0-----|-0-r-4-r----
|-----0-----0-|-----2---|-----0-----0-|-----2------
|---2---------|---------|---2---------|------------
|-0-----------|-0---2---|-------------|-----2------
|-------------|---------|-0-----------|-0----------

       
  Emin      Emin/maj7   G/E           A9
  e e e q q e  +q e q q e   e e e q q e   e e e q q e
|-------3-3-3-|-3---3-3-3-|-------3-3-3-|-------3-3-3-
|-------5-5-4-|-4---4-4-3-|-------3-3-2-|-------2-2-2-
|-----4-----4-|-4---4-4-4-|-----4-------|-----4-------
|---2-------2-|-2-2-------|---2---------|---2---------
|-------------|-----------|-------------|-0-----------
|-0-----------|-----------|-0-----------|-------------

      
  Amin7             B7    Em-sus4         Emin
  e e e q q e   e Q e Q   e e e q q e  +e q e q q
|---------3---|-3---2---|---------0---|-----------|
|-------1-----|-1-r---r-|-------0-----|-----------|
|-----0-----0-|-----2---|-----2-----2-|-2-0-0-----|
|---2---------|---------|---2---------|-------2-0-|
|-0-----------|-0---2---|-------------|-----------|
|-------------|---------|-0-----------|-----------|

      
1ST BRIDGE

  C           Dsus/9      Bmin/E    Esus  E       E7
  e e e q Q   e e e q Q   e e e q q e     e q q Q
|---------0-|---------0-|---------2-0---|-0-----0----
|-1-----1-1-|-3-----3-3-|---------3-0---|-0---0------
|-0---0---0-|-0---0---0-|-------2---1h2-|-1-1--------
|-2-2-------|-4-4-------|-----4---------|-2----------
|-3---------|-5---------|---2-----------|-2----------
|-----------|-----------|-0-------------|-0----------

 
  C           Dsus/9      Amin7/9
  e e e q Q   e e e q Q   Q Q q  +Q e q q 
|---------0-|---------0-|-----7-|+7-------
|-1-----1-1-|-3-----3-3-|-----5-|+5-------
|-0---0---0-|-0---0---0-|-----5-|+5-------
|-2-2-------|-4-4-------|-----5-|+5-------
|-3---------|-5---------|---7---|--(7)----
|-----------|-----------|-5-----|----(5-7)

 
  C           Dsus/9      Bmin/E    Esus  E       E7
  e e e q Q   e e e q Q   e e e q q e     w
|---------0-|---------0-|---------2-0---|-0----------
|-1-----1-1-|-3-----3-3-|---------3-0---|-0----------
|-0---0---0-|-0---0---0-|-------2---1h2-|-1----------
|-2-2-------|-4-4-------|-----4---------|-2----------
|-3---------|-5---------|---2-----------|-2----------
|-----------|-----------|-0-------------|-0----------


  C    D/G  C              B7
  Q    Q    q  +h  (q q)               
|-----------0-|+0--------|-7------|------------------
|-8----7------|----------|-7------|------------------
|-9----7----2-|+2--------|-8------|------------------
|------5----5-|+5--------|-7------|------------------
|-----------3-|+3--------|-9------|------------------
|-8-----------|----(3/8)-|-7------|------------------

 
1st CHORUS

  Emin                       Amin7
  q e  q q  e   +e  Q+h     q e e e q e  +e Q+h
|--------------|----------|-------------|------
|-r----8-10-10-|-10-8-----|---1---1/3-3-|-3-1--
|---/9---11-11-|-11-9-----|-r---2--/4-4-|-4-2--
|--------------|----------|-------------|------
|--------------|----------|-------------|------
|--------------|----------|-------------|------


  D            B7
               e e e q  e e e   H
|-----|------|-------7----0---|-----------|
|-----|------|-----7----7-----|-----------|
|-----|------|---8----------8-|+8---------|
|-----|------|-7--------------|-----------|
|-----|------|----------------|-----------|
|-----|------|----------------|-----------|


  Emin                       Amin7
  q e  q q  e   +e  Q+h     e  e e q e e e    e  e q  h
|--------------|----------|--------8--------|-----------
|-r----8/10-10-|-10-12----|------8---8---10-|+10---10-r-
|---/9--/11-11-|-11-12----|----9-------9----|----9------
|--------------|----------|-10--------------|-----------
|--------------|----------|-----------------|-----------
|--------------|----------|-----------------|-----------


  D            B7
               e e e q  e e e 
|-----|------|-------2---------|-----------
|-----|------|-----4----4---4--|+4---------
|-----|------|---2--------2----|-----------
|-----|------|-4---------------|-----------
|-----|------|-----------------|-----------
|-----|------|-----------------|-----------


     B7/E    Emin    D/E    Emin

2nd VERSE

  Emin    Emin/maj7   G/E         A9
  q e q q e  +q e q q e  +q e q q e   q e q q e
|-----3-3-3-|-3---3-3-3-|-3---3-3-3-|+3---3-3-3---
|-----5-5-4-|-4---4-4-3-|-3---3-3-2-|+2---2-2-2---
|---4---4-4-|-4---4-4-4-|-4---4-4-4-|+4---4-4-4---
|-2-------2-|-2-2-----2-|-2-2-------|---2---------
|-----------|-----------|-----------|-0-----------
|-----------|-----------|-----------|-------------

                 
  Amin7             B7    Emin              B7
  e e e q q e   e Q e Q   e e e q e e e   e e e e h
|---------3---|-3---2---|-0-----0-----0-|+0-------2-
|-------1-----|-1-r---r-|---0-----0-----|---0-----4-
|-----0-----0-|-----2---|-----0-----0---|-----0---2-
|---2---------|---------|---------------|-------2---
|-0-----------|-0---2---|---------------|---------2-
|-------------|---------|-0-------------|-----------


  Emin      Emin/maj7   G/E           A9
  e e e q q e  +q e q q e   e e e q q e   e e e q q e
|-------3-3-3-|-3---3-3-3-|-------3-3-3-|-------3-3-3-
|-------5-5-4-|-4---4-4-3-|-------3-3-2-|-------2-2-2-
|-----4-----4-|-4---4-4-4-|-----4-------|-----4-------
|---2-------2-|-2-2-------|---2---------|---2---------
|-------------|-----------|-------------|-0-----------
|-0-----------|-----------|-0-----------|-------------

  Amin7               B7    Em-sus2           Emin
  e q q q e    +e q e h     e e e q e e e  +e e+q q q
|---7-7-5-3---|-3-0---2---|-2-----2-----2-|-2h3--------|
|---5-5-5-1---|-1-1---4---|-5-5-----5-----|------------|
|---5-5-5-0---|-0-0---2---|-4---4-----4---|------------|
|-------------|-----------|-2-------------|------(2-0)-|
|-0-----------|-----0-2---|---------------|------------|
|-------------|-----------|(0)------------|------------|

      2nd BRIDGE

  Bmin7       E
  q q q e e e e e+H
|-----------|---4--------|
|-r-r-r-3---|------------|
|---------2-|/4----------|
|-----------|------------|
|-----------|------------|
|-----------|-0----------|

2nd CHORUS

  Emin                       Amin7
  q e  q q  e   +e  Q+h     q e e e e e e   e Q+h
|--------------|----------|---------------|------
|-r----8-10-10-|-10-12----|-----1---3---3-|-3\1--
|---/9---11-11-|-11-12----|-r-2---2---4---|-4\2--
|--------------|----------|---------------|------
|--------------|----------|---------------|------
|--------------|----------|---------------|------


  D         B7
            e e e q e e e   e e e e+h
|----|----|-------2-------|-------2-------
|----|----|---------0-----|---------------
|----|----|-----2-----2---|-----2---------
|----|----|---1---------1-|---1-----------
|----|----|-2-------------|-2-------------
|----|----|---------------|---------------


  Emin                       Amin7
  q e q  q e   e e+h e  e   +e  q q q e  +e q e e e q
|------------|---------/10-|-10\8-8-7-7-|-7\5-5-------
|-r---5-/7-7-|-7h8---r-----|------------|-----5-^-^-r-
|--/4---/7-7-|-7h9-----/11-|-11\9-9-7-7-|-7\5-5-------
|------------|-------------|------------|-----5---.---
|------------|-------------|------------|-------------
|------------|-------------|------------|-------------


  D                           B7
  e q q q e  +e e e e e e q   e e e q e e e  +e q q q e
|-2-2-----2-|-2-2-----------|-------7---0---|---0-0-0-0-
|-3---3-----|---3-r-^-^-^-r-|-----7---7-----|---7-7-7-7-
|-2-----2---|---2-----------|---8---------8-|-8-8-8-8-8-
|-0---------|---.-------.---|-7-----------7-|-7---------
|-----------|---------------|---------------|-----------
|-----------|---------------|---------------|-----------

     B7/E    Emin    D/E    Emin

3rd BRIDGE

  Cmaj7         D7            Bmin/E        E
  w             w               H    e e    w
|-3-----------|-5-----------|-------------|-------------
|-------------|-------------|-5/7----5h7--|-5-----------
|-4-----------|-5-----------|-------------|-------------
|-------------|-------------|-5/7---------|-6-----------
|-3-----------|-5-----------|-------------|-------------
|-------------|-------------|--(7)--------|(0)----------
  

  C6/9          Dsus/9        Amin7/9
  e e e q Q     e e e q Q     Q   Q   q    +w
|---------3---|---------0---|-8---7---5---|-5-----------
|-------3-----|-------3-----|-------------|-------------
|-----2-------|---0---------|-9---7---5---|-5-----------
|---2---------|-----4-------|-.---.-------|-------------
|-3-----------|-5-----------|-------------|-------------
|-------------|-------------|-------------|-------------
  

  C6/9          Dsus/9        Bmin/E        E
  e e e q Q     e e e q Q     e e e q Q     w
|-------3-3---|-------5-5---|-------2-2---|-0-----------
|-------3-3---|-------3-3---|-------3-3---|-0-----------
|---5---------|---0---------|-----2-------|-1-----------
|-----7-------|-----4-------|-------------|-------------
|-3-----------|-5-----------|---2---------|-------------
|-------------|-------------|-0-----------|-0-----------

  C  D/G C6              B7
  Q  Q   q   +H    e e   e  q q q e  +e q s  s e e  e e
|-----------|----------|-11---------|-----10p8p7--------
|-8--7---5--|-5--------|-10-^-^-^-^-|-^-^--------10-8-7-
|-9--7---5--|-5----5/9-|-8----------|-------------------
|--------7--|-7--------|-9----------|-------------------
|-----------|----------|------------|-------------------
|-----------|----------|------------|-------------------
  
3rd Chorus

  Emin                       Amin7
  e e e  q q  e   +e  Q+h  e e e q q e  +e e+H 
|---------------|--------|-------8-7-7-|-7-5--
|-r-----8/10-10-|-10/12--|-----5-------|------
|---7/9--/11----|-11/12--|-r-5---------|------
|---------------|--------|-------------|------
|---------------|--------|-------------|------
|---------------|--------|-------------|------


  D         B7
|----|----|-----|-------------
|----|----|-----|-------------
|----|----|-----|-------------
|----|----|-----|-------------
|----|----|-----|-------------
|----|----|-----|-------------


  Emin                 Amin7
  q e q  q e  +e H+e   e q  q  q e  +e H+e
|------------|-------|---12-10-8-7-|-7-5-------
|-r---5--7-7-|-7-8---|-r-----------|-----------
|--/4----7-7-|-7-9---|---12-11-9-7-|-7-5-------
|--------.-.-|-------|---.--.--.-.-|-----------
|------------|-------|-------------|-----------
|------------|-------|-------------|-----------


  D            B7
               e e e q  e e e 
|-----|------|-------2---------|-----------
|-----|------|-----4----4---4--|+4---------
|-----|------|---2--------2----|-----------
|-----|------|-4---------------|-----------
|-----|------|-----------------|-----------
|-----|------|-----------------|-----------


  Emin                             Amin7
  q e e e  e  e  e    e  q   h+e   q e e e e e e   e e+H
|-------------12-14-|-15-14-12---|-----------7-8-|-7-5--
|----------12-------|------------|---------5-----|------
|-r-r-9/12----------|------------|-r-r-4/5-------|------
|-------------------|------------|---------------|------
|-------------------|------------|---------------|------
|-------------------|------------|---------------|------


  D         B7            |--3---|
            h+e  q e  +e q s s  s  e e  e e
|----|----|------7-8-|-8-7-8h10p8--7--------
|----|----|----------|---------------10-8-7-
|----|----|----------|----------------------
|----|----|----------|----------------------
|----|----|----------|----------------------
|----|----|----------|----------------------


  Emin
  q e e e  e  e  e    e   q  q  e  e  e
|-------------12-14-|-15-/17-15-14----14-
|----------12-------|--------------------
|-r-r-9/12----------|--------------14----
|-------------------|--------------------
|-------------------|--------------------
|-------------------|--------------------


  Amin7
  e  e  e  q  e  e  e    e  e e e  e e  q
|-14\12----12----10----|-10\8-8----8----8-
|----------------------|------------------
|-14\12-12----11----11-|---\9---9----9----
|----------------------|------------------
|----------------------|------------------
|----------------------|------------------


  D                 B7
       e q   q  Q   e e e q e e e   +w
|----|---10-/14-10|-7-----7-----7--|-7-----------
|----|------------|---7-----7---7--|-7-----------
|----|-r-11-/14-11|-----8-----8-8--|-8-----------
|----|------------|-7-----------7--|-7-----------
|----|------------|----------------|-------------
|----|------------|----------------|-------------


     B7/E   Emin   D/E   Emin


Chord voicings for bridge:

  C     Dsus4/9   Bmin/E  E    Amin7/9   C D/G C6  B7 (alt)
|-0-----0---------2-------0----7---------------0---7--11---|
|-1-----3---------3-------0----5---------8--7------7--10---|
|-0-----0---------2-------1----5---------9--7--2---8--8----|
|-2-----4---------4-------2----5------------5--5---7--9----|
|-3-----5---------2-------2----7---------------3---9-------|
|-----------------0-------0----5---------8---------7-------|
Note: 1st & 2nd bridge as written are adapted from the keyboard part!


Chord voicings for chorus:

  Emin  Amin7 D  B7 B7/E Emin D/E Emin F#dim F#aug Dsus/b2 D7
|-3-0---5-----2--2---------------------5-----2-----3-------5---|
|-5-8---5-----3--4--7----5----3---0----4-----3-----4-------7---|
|-4-9---5-----2--2--8----4----2---0----5-----3-----2-------5---|
|-2-9---5-----0--4--7----5----4---2----4-----4-----0-------0---|
|---10--0--------2---------------------------------------------|
|---0---------------0----0----0---0----------------------------|
(Try using F#dim as passing chord between B7 and Emin; you can move 
 this chord in minor third intervals for more motion.  Try using F#aug
 as passing chord between D and B7; you can move this chord in fourth 
 intervals.  Also, you can suspend the D to Dsus/b2 or D7 for more 
 tension)



Legend:
w,h,q,e,s = whole,half,quarter,eighth,sixteenth
H,Q,E = dotted half, quarter, eighth
+ = tie
/ = slide up
\ = slide down
r = rest
^ = strum
h = hammer
p = pulloff
. = staccato
() = optional note
|--3--| = triplet

Comments, suggestions, corrections:
crickman@bellsouth.net

P.S. I make no claims of mastery of the art of rasgueado.  You'll 
certainly need to embellish the above.  Try the following for tips:
http://www.harmony-central.com/Guitar/Lessons/rasgueado-technique.txt

Comments about this tab

Cry_Leb - 2006-06-10

can u please add the lyrics and chords


Add a comment/correction

Complimentary Christian Ringtones
Dadamobile and CGR have teamed up to bring your favorite Christian artists right to your phone. Sign up today and get 10 complementary ringtones!
Tab Country
Did you know CGR has a sister site w/ country guitar tabs? Well we do! Its called Tab Country. It has a great archive with a lot of country tabs.
Rockin Tabs
Are you looking for a site that has rock guitar tabs? Then Rockintabs.com is the place for you. It is a budding site with many rock guitar tabs. Submit your tab today.
Tab Gallery
Tab Gallery has a compilation of christian, rock, and country tabs all in one place. Come visit us.