Guitar Tabs
song title    band name

Join Us Today!

Don't strum alone...
be a part of the largest online Christian music community. Browse thousands of guitar tabs and chat w/ musicians like yourself.


It's Free!

Velasquez, Jaci - Shelter

This tab has not yet been rated for accuracy.Sorry, but you must be logged in to rate this tab.
Click here to log-in, or you can click here to register.
(Registration is free)

All songs owned by corresponding publishing company. If you make copies of any song on this website, be sure to report your usage to CCLI.
"SHELTER"                                
By: Jaci Velasquez                              
Album: "Heavenly Place"                        
Written by:  Mark Heimermann, Dann Huff, Wayne Kirkpatrick         
(C)1996 Fun Attic Music/ASCAP/Ashlyn Music/BMI/Emily Booth, Inc./
Magic Beans Music/BMI
Tab: Chris Rickman  (crickman@bellsouth.net) Version 2.02

INTRO

     C#min9                     F#13
     q e e s  s  s s s s e      w
||-------7-10/11-r-7--------|-----------------------
||---r-9-------------r-9-r--|-7/9-------------------
||.------4-7-/8----4--------|-----------------------
||.----6---------------6----|-4/6-------------------
||-----.-.----.----.---.----|-----------------------
||--------------------------|-----------------------
                         _________________  _____
                         |1.                |2.
  C#min9                   F#13 |--3--|       F#13
  q e e s  s  s s  s s e     q   e e e  h       w
|-----7-11-12-r-11-r-7-r-|-7/9-------------||-7/9---
|-r-9--------------------|-------r-7-6--5--||-------
|-----4-8--9----8----4---|-4/6------------.||-4/6---
|---6--------------------|---------4-3--2-.||-------
|---.-.-.--.----.----.---|-----------------||-------
|------------------------|-----------------||-------


VERSE (repeat pattern 4 times; emphasis on beats 2 and 4)

    C#min9                        F#13
    e s s s s   e s s s s s E     e s s s s   e s s s s s E
|-----------------------------|-----------------------------
|-3/4-r-^-^-r-3/4-r-^-^-r-^-r-|-3/4-r-^-^-r-3/4-r-^-^-r-^-r-
|-3/4-----.---3/4---------.---|-2/3-----.---2/3---------.---
|-1/2---------1/2-------------|-1/2---------1/2-------------
|-3/4---------3/4-------------|-3/4---------3/4-------------
|-----------------------------|-----------------------------

BRIDGE (more freely)

  E/G#   A           B       E 
  E s e  E s e q     E s e   E s e q 
|-0------0-------|---0-------0-------
|-5-^-^-/5-^-^-^-|--/7-^-^-7/9-^-^-^-
|-4-----/6-------|--/8-----7/9-------
|-6-----/7-------|--/9-----7/9-------
|----------------|-------------------
|----------------|-------------------


  E/G#  A           Bsus4 B
  E s e E s e q     E s e E s e q 
|-0-----0-------|---0-----0-------
|-5-^-^-5-^-^-^-|--/7-^-^-7-^-^-^-
|-4-----6-------|--/9-----8-------
|-6-----7-------|--/9-----9-------
|---------------|-----------------
|---------------|-----------------


  E/G#   A           B       C#min7 (Bass plays root)
  E s e  E s e q     E s e   E s e q 
|-0------0-------|---0-------0-------
|-5-^-^-/5-^-^-^-|--/7-^-^-7/9-^-^-^-
|-4-----/6-------|--/8-----7/9-------
|-6-----/7-------|--/9-----7/9-------
|----------------|-------------------
|----------------|----------(9)------


  D                G7    F#dim G    G7
  E s e E s e q   e s s s  s  e  s s s s s s s s
|-0-----0-------|-4-----5-----4----4-------------
|-7-^-^-7-^-^-^-|-4-r-^-4--r--4--r-7-^-r-^-r-^-r-
|-7-----7-------|-5-----5-----5----5-------------
|-7-----7-------|-4-----4-----6----6-------------
|---------------|--------------------------------
|---------------|--------------------------------


CHORUS

C#min7   F#7
B        B/A      E/G#      E
C#min7   F#7
A7       G#7      F#7
F#7      G7       G#7 
A7       G#7      C#min9 F13        C#min9 F13
(Over intro with 2nd ending)

2nd VERSE

2nd BRIDGE

2nd CHORUS

3rd VERSE

      C#min             F#13                C#min         F#13
 e    e   e e e e e q   q e e e E e     s   q e e e e q   q e e e Q
-14-|-12\---9-7-9-7---|---9-7-9-----------|---9-7-9-7---|---9-7-9---
-13-|-14\-r---------r-|-r-------r---------|-r---------r-|-r-------r-
-13-|-13\---6-4-6-4---|---6-4-6---11b13-r-|---6-4-6-4---|---6-4-6---
-.--|-.-----.-.-.-.---|---.-.-.-----------|---.-.-.-.---|---.-.-.---
----|-----------------|-------------------|-------------|-----------
----|-----------------|-------------------|-------------|-----------

  C#min         F#13           C#min 
  q e e e e q   q e e e q e    q e e e e q  
|---9-7-9-7---|---9-7-9---14-|---9-7-9-7---
|-r---------r-|-r-------r-14-|-r---------r-
|---6-4-6-4---|---6-4-6---15-|---6-4-6-4---
|---.-.-.-.---|---.-.-.------|---.-.-.-.---
|-------------|--------------|-------------
|-------------|--------------|-------------
 (with wah-wah, percussive sixteenth notes on rests)

  F#13 
  s  s s s e s s s s e s s s s
|-14---------------------------
|-16-^-^-^-x-^-^-^-^-x-^-^-^-^-
|-15---------------------------
|-14---------------------------
|------------------------------
|------------------------------
  (with wah-wah)                (wah-wah off)

2nd BRIDGE

  E/G#    Aadd9          B         E 
  s e e s s e e e s s s  s s s e s s e e s s s s s
|-----0-------0-0------|---------------0-0---------
|-0-----0---------0----|-------4-4-----------------
|-------------------4--|-----------------------4h6-
|-4h6-----6-7--------4-|---2h4-----4h6-----4h6-----
|---------0------------|-2-------------------------
|-0--------------------|-----------0---------------

  E/G#    A                 Bsus4   B
  s e e s s e e e s s  s    s e e e e e s+q
|-----0-------0-0---------|---0-------7-7----------
|-0-----0-----------------|-----7-----0-0----------
|-----------------9b*rb9--|-8-----9-8--------------
|-4h6-----6-7-------------|------------------------
|---------0---------------|------------------------
|-0-----------------------|-7----------------------
                 *1/4 bend

  E/G#       A                 B           C#min7
  e s s s s  e s s s s s E     e s s s s   e s s s s s E 
|-0----------0-------------|---0-----------0-------------
|-0-r-^-^-r--0-r-^-^-r-^-r-|--/7-r-^-^-r---0-r-^-^-r-^-r-
|-4-----.---/6---------.---|--/8-----.---7/9---------.---
|-6---------/7-------------|--/9---------7/9-------------
|--------------------------|-----------------------------
|--------------------------|-----------------------------

  D                          G7    F#dim G#           G#7
  e s s s s  e s s s s s E   e s s s s   e+h +H       q 
|/5---------/5-------------|-4-----5-----4--|-4-------4--
|/7-r-^-^-r-/7-r-^-^-r-^-r-|-4-r-^-4-r---4--|-4-------7--
|/7-----.---/7---------.---|-5-----5-----5--|-5-------5--
|/7---------/7-------------|-4-----4-----6--|-6-------4--
|--------------------------|-------.--------|------------
|--------------------------|----------------|------------


3rd CHORUS (but repeat intro 3 times)

ENDING
  C#min7
  w     
|-4--------|----------------------------------------------
|-4h5------|----------------------------------------------
|-4--------|----------------------------------------------
|-4h6------|-----------------------6-7/8/9--7/8-7/8-------
|-4--------|-2/4-2/4-----6h7---6h7------------------9p6h7-
|----------|---------4/9-----9----------------------------


CHORDS for Intro, Chorus, 3rd Verse

  C#min9 C#min F#13 C#min7 F7   B  B/A E/G# E  F#7->A7
|-------------------4------2---(7)-7---4----0-----------
|-4------5-----4----4h5----2---/7--7---5----0--2-3-4-5--
|-4------4-----3----4------2h3-/8--8---4----1--3-4-5-6--
|-2------2-----2----4h6----2---/9--7---6----2--2-3-4-5--
|-4------4-----4----4--------------------------4-5-6-7--
|-------------------------------------------------------

Legend:
w,h,q,e,s = whole,half,quarter,eighth,sixteenth
H,Q,E = dotted half, quarter, eighth
+ = tie
/ = slide up
\ = slide down
r = rest
^ = strum
h = hammer
p = pulloff
b = bend
rb = release bend
. = staccato
x = percussive
() = optional note

Comments, suggestions, corrections:
crickman@bellsouth.net

Many Thanks to Mark Leikam!

Comments about this tab

No comments/corrections found. Add your own

Complimentary Christian Ringtones
Dadamobile and CGR have teamed up to bring your favorite Christian artists right to your phone. Sign up today and get 10 complementary ringtones!
Tab Country
Did you know CGR has a sister site w/ country guitar tabs? Well we do! Its called Tab Country. It has a great archive with a lot of country tabs.
Rockin Tabs
Are you looking for a site that has rock guitar tabs? Then Rockintabs.com is the place for you. It is a budding site with many rock guitar tabs. Submit your tab today.
Tab Gallery
Tab Gallery has a compilation of christian, rock, and country tabs all in one place. Come visit us.