Guitar Tabs
song title    band name

Join Us Today!

Don't strum alone...
be a part of the largest online Christian music community. Browse thousands of guitar tabs and chat w/ musicians like yourself.


It's Free!

This tab has been rated a 3.57 out of 5 for accuracy. (7 votes)Sorry, but you must be logged in to rate this tab.
Click here to log-in, or you can click here to register.
(Registration is free)

All songs owned by corresponding publishing company. If you make copies of any song on this website, be sure to report your usage to CCLI.
Author/Artist: Veggie Tales
Title: The Pirates That Don't Do Anything2
Album: A very silly sing along


chorus
------------------------------------------------------------------------------
------------------------------------------------------------------------------
----------------------------------0-0-0---------------------------------------
---------0-2-2-0---0----------0-2-------0-----2-------3-2---2---0-------------
-------3---------3---3-0-----3------------------3-3-3-----3---3---2-3---------
-3-3-3-------------------3-3--------------3-3---------------------------------

verse 
------------------------------------------------------------------------------
------------------------------------------------------------------------------
------------------------------------------------------------------------------
---------------------0-2-2-2-0-----------------------0-2-2-0---0-0-0-2-0------
-------------0-3-3-3-----------3-3-3-3-0-----0-3-3-3---------3----------------
-----------3-----------------------------3-3----------------------------------

------------------------------------------------------------------------------
------------------------------------------------------------------------------
------------------------------------------------------------------------------
-----------0-2-2-2-0-----------------------0-2-2-0-0--------------------------
---0-3-3-3-----------3-3-3-3-0-----0-3-3-3-----------2------------------------
-3-----------------------------3-3--------------------------------------------

Comments about this tab

someone13 - 2004-01-13

last note really is 3rd fret on the a string not a 2nd fret.


The_Cheat15 - 2004-07-29

Umm I think in the chorus instead of going

-------------
-------------
-------------
-----2-------
-------3-3-3-
-3-3---------

It sounds better to go

---------------
---------------
---------------
-------2-------
-----3---3-3-3-
-3-3-----------


The_Cheat15 - 2004-07-29

Actualy you can even add another note on the 3rd fret on the 6th string at the beginning


The_Cheat15 - 2004-07-29

of that part


Mar-T - 2005-09-02

If you want this song can be played with easy chords:
G C G D G C G D G (repeat for verses and stuff)

Start strumming the first G on "pirates"
Lyrics at http://www.ultimateveggie.com/silly/silly07.html
God Bless!


Sixstrings777 - 2006-08-07

Well, those chords work fine, but like the Pirates' solos don't work with those chords.

Could someone post the chords for the rest? Thank you.


Add a comment/correction

Complimentary Christian Ringtones
Dadamobile and CGR have teamed up to bring your favorite Christian artists right to your phone. Sign up today and get 10 complementary ringtones!
Tab Country
Did you know CGR has a sister site w/ country guitar tabs? Well we do! Its called Tab Country. It has a great archive with a lot of country tabs.
Rockin Tabs
Are you looking for a site that has rock guitar tabs? Then Rockintabs.com is the place for you. It is a budding site with many rock guitar tabs. Submit your tab today.
Tab Gallery
Tab Gallery has a compilation of christian, rock, and country tabs all in one place. Come visit us.