Guitar Tabs
song title    band name

Join Us Today!

Don't strum alone...
be a part of the largest online Christian music community. Browse thousands of guitar tabs and chat w/ musicians like yourself.


It's Free!

This tab has been rated a 4.00 out of 5 for accuracy. (3 votes)Sorry, but you must be logged in to rate this tab.
Click here to log-in, or you can click here to register.
(Registration is free)

All songs owned by corresponding publishing company. If you make copies of any song on this website, be sure to report your usage to CCLI.
“Rain Down”
All I Can Say
University Baptist Church
Words & Music by David Crowder
c1998 Inot Music


I based this almost entirely on the chords (in David Crowder’s own
messy handwriting) provided at www.ubcwaco.org under the Music section
while providing the fills and timing myself. I only tabbed out the
acoustic riff cause the two electric parts are pretty easy and also
pretty distinct. This is a great song and I hope I have the opportunity
to play it in worship some time. Have fun playing!

MAIN ACOUSTIC RIFF (used in intro and verses)
|-------------------------------------------------------------------|
|-------------------------------------------------------------------|
|------------------9--x---x---9-------x---x---x---9---9---x---x-----|
|-9------9----9----9--x---x---7-------x---x---x---7---7---x---x-----|
|-9h10---10--10---10--x---x---9-------x---x---x---9---9---x---x-----|
|-------------------------------------------------------------------|
  1       &       2       &       3       &       4       &      

|-------------------------------------------------------------------|
|-------------------------------------------------------------------|
|-7---x---x---x---7p5-----x---5---x---4---x---4---x---4---x---------|
|-5---x---x---x---5-------x---5---x---5---x---5---x---5---x---5-----|
|-7---x---x---x---7-------x---7---x---7---x---7---x---7---x---7-----|
|-------------------------------------------------------------------|
  1       &       2       &       3       &       4       &       

|-------------------------------------------------------------------|
|-------------------------------------------------------------------|
|-----------------x---0---x---0---x---0---x---0---x---0---x---0-----|
|-----------------x---5---x---7---x---5---x---5---x---5---x---9-----|
|---------7-------x---7---x---7---x---7---x---7---x---7---x---7-----|
|-6/7----7/8------x---8---x---8---x---8---x---8---x---8---x---8-----|
  1       &       2       &       3       &       4       &       

|-------------------------------------------------------------------||
|-------------------------------------------------------------------||
|---------x---0---x---0---x---0---x---0---x---0---x---0---x---0----*||
|-9p7-----x---7---x---7---x---5---x---5---x---5---x---5---x---5----*||
|-7-------x---7---x---7---x---7---x---7---x---7---x---7---x---7-----||
|-8-------x---8---x---8---x---8---x---8---x---8---x---8---x---8-----||
  1       &       2       &       3       &       4       &       


<>
Intro riff 2x
Intro riff w/ electrics 2x

<>
Em		C
Holy, holy is the Lord
Em		C
Holy, holy is the Lord

<>
G   D/F#	    C
Rain down Your love on us
		    G
Rain down Your love
G   D/F#	     C		 G	
Rain down Your grace and cover me
G   D/F#	    C
Rain down Your love on us
		    G
Rain down Your love
G   D/F#	    C
Rain down Your peace


Questions/comments--> JCBoyz@aol.com (David Schroder)

Comments about this tab

No comments/corrections found. Add your own

Complimentary Christian Ringtones
Dadamobile and CGR have teamed up to bring your favorite Christian artists right to your phone. Sign up today and get 10 complementary ringtones!
Tab Country
Did you know CGR has a sister site w/ country guitar tabs? Well we do! Its called Tab Country. It has a great archive with a lot of country tabs.
Rockin Tabs
Are you looking for a site that has rock guitar tabs? Then Rockintabs.com is the place for you. It is a budding site with many rock guitar tabs. Submit your tab today.
Tab Gallery
Tab Gallery has a compilation of christian, rock, and country tabs all in one place. Come visit us.