Guitar Tabs
song title    band name

Join Us Today!

Don't strum alone...
be a part of the largest online Christian music community. Browse thousands of guitar tabs and chat w/ musicians like yourself.


It's Free!

Tree63 - Joy

This tab has been rated a 3.50 out of 5 for accuracy. (2 votes)Sorry, but you must be logged in to rate this tab.
Click here to log-in, or you can click here to register.
(Registration is free)

All songs owned by corresponding publishing company. If you make copies of any song on this website, be sure to report your usage to CCLI.
JOY by tree
album - overflow
words and music by john ellis
tabbed by e

all down half step

main riff
1 |
2 |
3 |            6   7     6   7
4 |        x x                                                   7 7
5 | 4 5 5  x x 4 \ 5 x x 4 \ 5        4 5 5  xxxxx               5 5 
6 | 2 3 3                        then 2 3 3  xxxxx repeated into

chorus
  "let me be a shining light..."
1 |
2 |
3 |
4 |5                                7
5 |3 3 5     then later high chorus 5 5 7 
6 |  1 3                              3 5 

bridge

1 |
2 |
3 |
4 |
5 |2 3 3 2 3 2 3    4 5 5 4 5 4 5
6 |0 1 1 0\1 0\1    2 3 3 2\3 2\3

please i tabbed this a while ago, corrections to axelrade@eng.und.ac.za

Comments about this tab

21Frets - 2004-12-03

Actually the intro is a little off.
4x acoustic then electric
E------------------------------------
B------------------------------------
G-x-x--------x-x-6/7-x-x-6/7---------
D-x-x-5/5-5--x-x-6/7-x-x-6/7---------
A-x-x-5/5-5--x-x-4/5-x-x-4/5---------
E-x-x-2/3-3--x-x-----x-x-------------
But it's a great tab and song.


sundried - 2005-06-29

do ya know whats easier?

E:-----------
B:-----------
G:-----------
D:---7--9-9--
A:---5--7-7XX-7-s-9-7-s-9
E:---------XX-5-s-7-5-s-7
waddya think eh...eh!


guitarfreak15 - 2005-11-01

u guys im verry srry to tell u that u r way off i play that olmost every day.
i even play it in the band im in for my church!!
here's how it goes:
intro
e--------------------
B--------------------
G---------15/16-15/16
D-13/14-14----------- 8X
A---------13/14-13/14
E-11/12-12-----------
verse
e-----------------------------------------------------
B-----------------------------------------------------
G-----------------------------------------------------
D13/14-14-xxxx13/14-14xxxx13/14-14xxxx13/14-14-9-9-9-9 2x
A----------------------------------------------9-9-9-9
E11/12-12-xxxx11/12-12xxxx11/12-12xxxx11/12-12-7-7-7-7
x=pm
the chorus goes in the the chords of
A D E
A D E
A D E
D A E
then back to the intro
but only do it 4xthe to the second verse
and ther u go


Add a comment/correction

Complimentary Christian Ringtones
Dadamobile and CGR have teamed up to bring your favorite Christian artists right to your phone. Sign up today and get 10 complementary ringtones!
Tab Country
Did you know CGR has a sister site w/ country guitar tabs? Well we do! Its called Tab Country. It has a great archive with a lot of country tabs.
Rockin Tabs
Are you looking for a site that has rock guitar tabs? Then Rockintabs.com is the place for you. It is a budding site with many rock guitar tabs. Submit your tab today.
Tab Gallery
Tab Gallery has a compilation of christian, rock, and country tabs all in one place. Come visit us.