Guitar Tabs
song title    band name

Join Us Today!

Don't strum alone...
be a part of the largest online Christian music community. Browse thousands of guitar tabs and chat w/ musicians like yourself.


It's Free!

This tab has not yet been rated for accuracy.Sorry, but you must be logged in to rate this tab.
Click here to log-in, or you can click here to register.
(Registration is free)

All songs owned by corresponding publishing company. If you make copies of any song on this website, be sure to report your usage to CCLI.
Band/Aritist: Tourniquet
Song: Your Take
Date Tabbed: July 14th 1998
Tabbed by: Mark Hansen    email: whansen@direct.ca
Comments:
        This is yet another great song off of Vanishing Lessons, in fact,
it's my second favorite one off of this album.  It's not too difficult 
(excluding the lead parts of course), so read away and have fun!


Symbols used:

p = Pull off
h = Hammer on
/ = Slide up
\ = Slide Down
X = Muted Guitar Scratch

Opening riff
eb|---------------------------------------|
Bb|---------------------------------------|
Gb|---------------------------------------|
Db|-2--4-4--2--4--7--4-2--4-4--2--4--7--4-|
Ab|-2--4-4--2--4--7--4-2--4-4--2--4--7--4-|
Eb|-0--2-2--0--2--5--2-0--2-2--0--2--5--2-|

eb|------------------------------|
Bb|------------------------------|
Gb|------------------------------|
Db|------------------------------|
Ab|-9------7------5------3-------|
Eb|------------------------------|

eb|----------------------------------------------|
Bb|----------------------------------------------|
Gb|----------------------------------------------|
Db|-2--4-4--X--X--4--2-2----5--4-5--X--X--5--4-5-|
Ab|-2--4-4--X--X--4--2-2----5--4-5--X--X--5--4-5-|
Eb|-0--2-2--X--X--2--0-0----3--2-3--X--X--3--2-3-|

eb|---------------------------------------|
Bb|---------------------------------------|
Gb|---------------------------------------|
Db|-2--4-4----2----5---------9-------7--5-|
Ab|-2--4-4----2----5-------9-------7----5-|
Eb|-0--2-2----0----3----7-------5-------3-|

eb|-------------------------------------|
Bb|-------------------------------------|
Gb|-------------------------------------|
Db|-2-2-2-2-2-2-------2-2-2-2-2-2-------|
Ab|-2-2-2-2-2-2----h5-2-2-2-2-2-2----h5-|
Eb|-0-0-0-0-0-0-0h3---0-0-0-0-0-0-0h3---|
    O C O C O C       O C O C O C

        O = Play open
        C = Chug (play fully or partially muted)

eb|-----------------------|
Bb|-----------------------|
Gb|-----------------------|
Db|-2/4-4--4/6-6--6-6-6/7-|
Ab|-2/4-4--4/6-6--6-6-6/7-|
Eb|-0/2-2--2/4-4--4-4-4/5-|

There you go, that should give you enough to play pretty much everything,
there are a few rough spots...you just have to smooth them out for
yourself :).  Enjoy!

        Mark Hansen  (whansen@direct.ca)
        http://www.geocities.com/Hollywood/Hills/8172/tourniquet.html

Comments about this tab

No comments/corrections found. Add your own

Complimentary Christian Ringtones
Dadamobile and CGR have teamed up to bring your favorite Christian artists right to your phone. Sign up today and get 10 complementary ringtones!
Tab Country
Did you know CGR has a sister site w/ country guitar tabs? Well we do! Its called Tab Country. It has a great archive with a lot of country tabs.
Rockin Tabs
Are you looking for a site that has rock guitar tabs? Then Rockintabs.com is the place for you. It is a budding site with many rock guitar tabs. Submit your tab today.
Tab Gallery
Tab Gallery has a compilation of christian, rock, and country tabs all in one place. Come visit us.