Guitar Tabs
song title    band name

Join Us Today!

Don't strum alone...
be a part of the largest online Christian music community. Browse thousands of guitar tabs and chat w/ musicians like yourself.


It's Free!

This tab has not yet been rated for accuracy.Sorry, but you must be logged in to rate this tab.
Click here to log-in, or you can click here to register.
(Registration is free)

All songs owned by corresponding publishing company. If you make copies of any song on this website, be sure to report your usage to CCLI.
"Vanishing Lessons"
From the album "Vanishing Lessons"
By Tourniquet 
Music and Lyrics by Ted Kirkpatrick
copyright 1994 Broken Songs / Biomedical Music  (ASCAP)
Transcribed by Zeb Lang 02/11/1999
Lang@inetport.com


    (0:06)                     (0:13)                                   
E-----------------------------------------------------------------------
B-----------------------------------------------------------------------
G------------------------------2-----------4----------------------------
D---4-----------2--------------2-----------4----------------------------
A---2-----------2--------------0-----------2----------------------------
E---2-----------0-------------------------------------------------------

         Intro                                                          
E---||-------------------------------------------------|----------------
B---||-------------------------------------------------|----------------
G---||*------------------------------------------------|----------------
D---||*--2----------------2--2----------------2--------|----------------
A---||---2----------------2--2-------------------------|----------------
E---||---0-----0--0--3p0--0--0-----0--3p0--------------|----------------
               .  .       .  .      .

E------------------------------------------------------|----------------
B------------------------------------------------------|----------------
G------------------------------------------------------|----------------
D---2--------------------------------------------------|----------------
A---2-------------------2-----2--1h2--1p0--------------|----------------
E---0-----0--0--3p0--0---------------------3-----------|----------------
          .  .       .

E------------------------------------------------------|----------------
B------------------------------------------------------|----------------
G------------------------------------------------------|----------------
D---2----------------2--2-------------2----------------|----------------
A---2----------------2--2------------------------------|----------------
E---0-----0--0--3p0--0--0--0--3p0----------------------|----------------
          .  .       .  .  .

E------------------------------------------------------||---------------
B------------------------------------------------------||---------------
G-----------------------------------------0h1p0-------*||---------------
D---2----------------------------------2---------2----*||---------------
A---2----------------------0--2--2--5------------------||---------------
E---0-----0--0--3p0--0---------------------------------||---------------
          .  .       .

         With Fill 1                                   4x
E---||-------------------------------------------------||---------------
B---||-------------------------------------------------||---------------
G---||*-----------------------------------------------*||---------------
D---||*--0--1--2-----------2--------------------5--5--*||---------------
A---||---------------2-----2--------0--1--2--------3---||---------------
E---||---------------------0---------------------------||---------------
         .  .  .     .              .  .  .     .

         Fill 1                                                      7x
E---||---------------------------------------------------------------||-
B---||---------------------------------------------------------12----||-
G---||*--12--12--12-----12-----12-----12--12-----12-----12-----12---*||-
D---||*--14--14--12-----14-----12-----14--14-----12-----14----------*||-
A---||---------------------------------------------------------------||-
E---||---------------------------------------------------------------||-
         .   .   .      .      .      .   .      .      .

              Verse 1 (Same as Intro)           2x
E--------||-------------------------------------||----------------------
B--------||-------------------------------------||----------------------
G--------||*-----------------------------------*||----------------------
D--------||*-----------------------------------*||----------------------
A--------||-------------------------------------||----------------------
E--------||-------------------------------------||----------------------

     (1:04) - Chorus - 2 guitars, but can be played on one
E---||------0-----------------------------------------------------------
B---||------0-----------------------------------------------------------
G---||*-----------------------2-----------------2-----/--4--2-----------
D---||*--2--------/--5--4-----3~~~--/--5--4-----3~~~--/--2--0--4--5-~~~-
A---||---2--------/--7--5--5--------/--7--5--5-----------------2--2-----
E---||---0-----------------7-----------------7--------------------0-----

                                  2x
E---------------------------------||------------------------------------
B---------------------------------||------------------------------------
G--------------------------------*||------------------------------------
D--------------------------------*||------------------------------------
A-----------------------0--1--2~~-||------------------------------------
E-----------0--2--3---------------||------------------------------------
            .  .  .     .  .

         Verse 2 (Same as Verse 1)      2x       Repeat Chorus   4x     
E---||----------------------------------||--||-------------------||-----
B---||----------------------------------||--||-------------------||-----
G---||*--------------------------------*||--||*-----------------*||-----
D---||*--------------------------------*||--||*-----------------*||-----
A---||----------------------------------||--||-------------------||-----
E---||----------------------------------||--||-------------------||-----

                             Edgar, bass, and drums     (2:18)
E--------------------------|-----------------------|--------------------
B--------------------------|-----------------------|--------------------
G--------------------------|-----------------------|--------------------
D---2----------------2--2--|-----------------------|-----------5--------
A---2----------------2--2--|-----------------------|-----2--2--3--------
E---0-----0--0--3p0--0--0--|-----------------------|-----0--0-----------
          .  .       .  .                                .  .

E-----------------------------------------------------------------------
B-----------------------------------------------------------------------
G-----------------------------4-----------------------------------------
D-----------------------------2----------------------------5------------
A------2----------2-----2--2--------2----------2-----2--2--3------------
E------0--0--3p0--0-----0--0--------0--0--3p0--0-----0--0---------------
          .       .     .  .           .       .     .  .

    "Power Chords 1" - With Fill 2                              <
E-----------------------------------------------------------------------
B-----------------------------------------------------------------------
G------------------5-----------------------------4--------------4-------
D---2--------------5--------------5--------------4--------------4-------
A---2--------------3--------------5--------------2--------------2-------
E---0-----------------------------3-------------------------------------
                                                                .

         Fill 2
E---||------------------------------------------------------------------
B---||---7--9--9-----7--9-----7--9--9-----7--9-----7--9--9-----7--9-----
G---||*--7--9--9-----7--9-----7--9--9-----7--9-----7--9--9-----7--9-----
D---||*--7--9--9-----7--9-----7--9--9-----7--9-----7--9--9-----7--9-----
A---||------------------------------------------------------------------
E---||------------------------------------------------------------------

                          3x
E-------------------------||--------------------------------------------
B------7------------------||--------------------------------------------
G------7--9---9---9------*||--------------------------------------------
D------7--10--10--9--9---*||--------------------------------------------
A--------------------10---||--------------------------------------------
E-------------------------||--------------------------------------------

                                                                      <
E-----------------------------------------------------------------------
B---7--9--9-----7--9-----7--9--9-----7--9-----7--9--9-----7--9-----7--9-
G---7--9--9-----7--9-----7--9--9-----7--9-----7--9--9-----7--9-----7--9-
D---7--9--9-----7--9-----7--9--9-----7--9-----7--9--9-----7--9-----7--9-
A-----------------------------------------------------------------------
E-----------------------------------------------------------------------
                                                                      .

         (2:37)
E---||---7--7--7-----7--7-----7--7--7-----7--7-----7--7--7-----7--7-----
B---||---7--9--9-----7--9-----7--9--9-----7--9-----7--9--9-----7--9-----
G---||*--7--9--9-----7--9-----7--9--9-----7--9-----7--9--9-----7--9-----
D---||*-----------------------------------------------------------------
A---||------------------------------------------------------------------
E---||------------------------------------------------------------------

                         7x     After 4th repeat, play "Power Chords 1"
E------7-----------------||---------------------------------------------
B------7--10--10--7--9---||---------------------------------------------
G------7--9---9---7--9--*||---------------------------------------------
D--------------------9--*||---------------------------------------------
A------------------------||---------------------------------------------
E------------------------||---------------------------------------------

E---7--7--7-----7--7-----7--7--7-----7--7-----7--7--7-----7--7-----7--7-
B---7--9--9-----7--9-----7--9--9-----7--9-----7--9--9-----7--9-----7--9-
G---7--9--9-----7--9-----7--9--9-----7--9-----7--9--9-----7--9-----7--9-
D-----------------------------------------------------------------------
A-----------------------------------------------------------------------
E-----------------------------------------------------------------------

Play Verse 3, then Chorus                                                

         Ending (4:02)
E---||-----------------------------------7--\---------------------------
B---||-----------------------------/--8--8--\---------------------------
G---||*----------------------------/--9---------------------------------
D---||*--2----------------2--2-----------------------2------------------
A---||---2----------------2--2-----------------------2------------------
E---||---0-----0--0--3p0--0--0-----------------------0-----0--0--3------
               .  .       .  .                             .  .

                                3x
E-----------------------10--\---||--------------------------------------
B----------------/--12--12--\---||--------------------------------------
G----------------/--12---------*||--------------------------------------
D-------2--2-------------------*||--------------------------------------
A-------2--2--------------------||--------------------------------------
E---p0--0--0--------------------||--------------------------------------
        .  .

E-------------------------------------------------|---------------------
B-------------------------------------------------|---------------------
G-------------------------------------------------|---------------------
D---2----------------2--2----------------2--------|---------------------
A---2----------------2--2-------------------------|---------------------
E---0-----0--0--3p0--0--0-----0--3p0--------------|---------------------
          .  .       .  .     .

                                              <
E------------------------------------------------||---------------------
B------------------------------------------------||---------------------
G------------------------------------------------||---------------------
D---2-----------------------------------------2--||---------------------
A---2----------------2-----2--1h2--1p0--------2--||---------------------
E---0--0--0--3p0--0---------------------3-----0--||--------------------- 
       .  .       .                           .

Questions, comments, suggestions, complaints, requests:
    Lang@inetport.com

Comments about this tab

alex_omul - 2006-08-27

Great tab man, except the tunning is one step down: Eb,Ab,Eb,Db,Bb,Eb.


Add a comment/correction

Complimentary Christian Ringtones
Dadamobile and CGR have teamed up to bring your favorite Christian artists right to your phone. Sign up today and get 10 complementary ringtones!
Tab Country
Did you know CGR has a sister site w/ country guitar tabs? Well we do! Its called Tab Country. It has a great archive with a lot of country tabs.
Rockin Tabs
Are you looking for a site that has rock guitar tabs? Then Rockintabs.com is the place for you. It is a budding site with many rock guitar tabs. Submit your tab today.
Tab Gallery
Tab Gallery has a compilation of christian, rock, and country tabs all in one place. Come visit us.