Guitar Tabs
song title    band name

Join Us Today!

Don't strum alone...
be a part of the largest online Christian music community. Browse thousands of guitar tabs and chat w/ musicians like yourself.


It's Free!

Tourniquet - Theodicy On Trial

This tab has not yet been rated for accuracy.Sorry, but you must be logged in to rate this tab.
Click here to log-in, or you can click here to register.
(Registration is free)

All songs owned by corresponding publishing company. If you make copies of any song on this website, be sure to report your usage to CCLI.
Theodicy On Trial
Tourniquet

This is pretty much the whole song,
besides a couple little ditties and the solo.
Let me know if you have something to add or if you have a question.

emailme17@juno.com


Intro
E---||-------------------||----------------------------
B---||-------------------||----------------------------
G---||-------------------||----------------------------
D---||-7-7-7-7-7-7-6-6---||----------------------------
A---||-7-7-7-7-7-7-6-6---||----------------------------
D---||-7-7-7-7-7-7-6-6---||----------------------------

For the next part I just play a chord on the 1st fret as necessary,
I didn't tab the other guitar part.

Riff A (these notes aren't an exact count,
I just put so many show you what to play;
also, these notes are palm-muted)
E---||-------------------------------------------------
B---||-------------------------------------------------
G---||-------------------------------------------------
D---||-------------------------------------------------
A---||-------------------------------------------------
D---||-1-1-1-1-1-1-1-1-1-1-1-1-1-1-1-1-1-1-1-1-1-1-1-1-

Riff B
E---||-----------------------------------------||------
B---||-----------------------------------------||------
G---||-----------------------------------------||------
D---||-1--3-3-/-4--3-3-/-4--3-3-/-4-6-p-4--3---||------
A---||-1--3-3-/-4--3-3-/-4--3-3-/-4-6-p-4--3---||------
D---||-1--3-3-/-4--3-3-/-4--3-3-/-4-6-p-4--3---||------

The next part (Riff C) is the same thing as Riff B
except for it has more strums. Listen to the CD.

The part after Riff C (1:30) is just a chord on the 1st fret.
Again, listen to the CD.

Riff D
E---||-------------------------------------------------
B---||-------------------------------------------------
G---||-------------------------------------------------
D---||-1-1-2-2-4-4-2-2-1-1-2-2-4-4-2-2-1-1-2-2-4-4-6-6-
A---||-1-1-2-2-4-4-2-2-1-1-2-2-4-4-2-2-1-1-2-2-4-4-6-6-
D---||-1-1-2-2-4-4-2-2-1-1-2-2-4-4-2-2-1-1-2-2-4-4-6-6-

E---||-----------||------------------------------------
B---||-----------||------------------------------------
G---||-----------||------------------------------------
D---||-7-7-9-9---||------------------------------------
A---||-7-7-9-9---||------------------------------------
D---||-7-7-9-9---||------------------------------------

Order:
Intro x13
Chord on 1st fret
Riff A
Riff B x2
Riff C x3
Chord on 1st fret
Riff D
Riff A
Riff B x2
Riff C x3
Chord on 1st fret
Riff D
Riff C x5
Riff A
Chord on 1st fret
Riff D
Chord on 1st fret

Comments about this tab

No comments/corrections found. Add your own

Complimentary Christian Ringtones
Dadamobile and CGR have teamed up to bring your favorite Christian artists right to your phone. Sign up today and get 10 complementary ringtones!
Tab Country
Did you know CGR has a sister site w/ country guitar tabs? Well we do! Its called Tab Country. It has a great archive with a lot of country tabs.
Rockin Tabs
Are you looking for a site that has rock guitar tabs? Then Rockintabs.com is the place for you. It is a budding site with many rock guitar tabs. Submit your tab today.
Tab Gallery
Tab Gallery has a compilation of christian, rock, and country tabs all in one place. Come visit us.