Guitar Tabs
song title    band name

Join Us Today!

Don't strum alone...
be a part of the largest online Christian music community. Browse thousands of guitar tabs and chat w/ musicians like yourself.


It's Free!

This tab has not yet been rated for accuracy.Sorry, but you must be logged in to rate this tab.
Click here to log-in, or you can click here to register.
(Registration is free)

All songs owned by corresponding publishing company. If you make copies of any song on this website, be sure to report your usage to CCLI.
"Psycho Surgery"
>From the album "Psycho Surgery"
By Tourniquet
Words and Music by Ted Kirkpatrick
copyright 1991 Intense Records
Transcribed by Zeb Lang 02/14/2000
Lang@inetport.com

This song is very fast, you might have to slow down to at least half
speed to learn the riffs.


      Intro (0:14)
E---||----------------------------------------|---------------------------------------|-----------
B---||----------------------------------------|---------------------------------------|-----------
G---||*---------------------------------------|---------------------------------------|-----------
D---||*--0--0--0--1p0--0--0-------------------|--0--0--0--1p0--0--0-------------------|-----------
A---||-----------------------0h1--1--1--1~~~--|---------------------------------------|-----------
E---||----------------------------------------|----------------------2h3--3--3--3~~~--|-----------


E----------------------------------------|---------------------------------------|----------------
B----------------------------------------|---------------------------------------|----------------
G-----------------------3p2--2--2--2~~~--|----------------------5p3--3--3--3~~~--|----------------
D---0--0--0--1p0--0--0-------------------|--0--0--0--1p0--0--0-------------------|----------------
A----------------------------------------|---------------------------------------|----------------
E----------------------------------------|---------------------------------------|----------------


E-------------------------------------------------------------------------------------------------
B-------------------------------------------------------------------------------------------------
G-----------------------7p5--5--5--5\3--3--3--3\2--2--2--2p0--0-----------------------------------
D---0--0--0--1p0--0--0-------------------------------------------5p4--4--4--4h5--5--5--5\---------
A-------------------------------------------------------------------------------------------------
E----------------------------------------------------------------------------------------3--3-----

Verse 1 (Lyrics start on 3rd repeat)
Cranial vault the mind's map paved by heart and soul's aim
Transfer of DNA forms the cerebral mainframe
(4th Repeat)
Just like a computer garbage in - garbage out
Subdural detour shuns the embrace of logic and reason
Shrouded in doubt    (0:37)
E----------||--||---------------------------------------------|-----------------------------------
B----------||--||---------------------------------------------|-----------------------------------
G---------*||--||*--------------------------------------------|-----------------------------------
D------5--*||--||*------------------------5-------------------|-----------------------------------
A------5---||--||------------------------------------------5--|-----------------------------------
E---3--3---||--||---3--3--3--5p3--3--6h3-----3--3--6h3--3-----|-----------------------------------


E---------------------------------------------|--------------------------------------------|------
B---------------------------------------------|--------------------------------------------|------
G---------------------------------------------|--------------------------------------------|------
D-------------------------6-------------------|------------------------5-------------------|------
A------------------------------------------6--|-----------------------------------------5--|------
E---4--4--4--6p4--4--7p4-----4--4--7p4--4-----|--3--3--3--5p3--3--6h3-----3--3--6h3--3-----|------


4x                                                   
E---------------------------------------------||--------------------------------------------------
B---------------------------------------------||--------------------------------------------------
G--------------------------------------------*||--------------------------------------------------
D--------------------8---------------------7-*||--------------------------------------------------
A---6--6--6--8p6--6--6\---5--5--5--6p5--5--5\-||--3--/--------------------------------------------
E---------------------------------------------||--1--/--------------------------------------------


        Divine mental biopsy reveals you need psycho surgery
        The renewing of your mind by cosmic mirror

      (1:06) Chorus
E---||------------------------------------------------------------------------||------------------
B---||------------------------------------------------------------------------||------------------
G---||*----------------------------------------------------------------------*||------------------
D---||*-----------8--8\5-----3--3/5------------------------------------------*||------------------
A---||---5--5---------------------------5--5/6--6-----4--4/5--5-----6--6--\---||------------------
E---||---3--3-------------------------------------------------------4--4--\---||------------------
                                                                                                  
        (Verse 2) Play Guitar part for Verse 1 2x
        Spiritual angiography illustrates the mind's sorry state
        Barnacle ridden psyche man's own demise to demonstrate
        Burrowing mole exposes the dry rot within
        Abundance of wormwood, euphomism for sin

        
        (Play Chorus)
        Divine mental biopsy reveals you need psycho surgery
        By His Spirit the symptoms are starting to clear


Did not tab lead or ryhthm during lead, be my guest!

Repeat Intro (2:25)

Verse 3 (2:38) Play Guitar part for Verse 1 2x
Blind cavefish, inbred victim of ocular atrophy
Inky blackness everywhere, there's no reason to see
Wait is someone there? I can feel the heat
Limbs wax useless, help me, can't rise to my feet

(Play Chorus)
Divine mental biopsy reveals you need psycho surgery
A shred of truth is illuminated by miner's light
Divine mental biopsy reveals you need psycho surgery
>From the first touch a faint pulse begins to appear

       (3:29)
E---||--------------------------------------------------------------------------------------------
B---||--------------------------------------------------------------------------------------------
G---||*-------------------------------------------------------------------------------------------
D---||*--2--------------------2-----2--2--2--1--1--5--------------------3--------------------2----
A---||---2--------------------2--------------------------5--5--5--4--4--------3--3--3--2--2-------
E---||---0-----3--3--3--2--2----------------------------------------------------------------------

                       10x
E----------------------||--------------------------------------------------
B----------------------||--------------------------------------------------
G---------------------*||--------------------------------------------------
D---------------------*||----2---------------------------------------------
A----------------------||----2---------------------------------------------
E------0--3--0--2~~~---||----0---------------------------------------------

Questions, comments, suggestions, complaints, requests:
    Lang@inetport.com

Comments about this tab

No comments/corrections found. Add your own

Complimentary Christian Ringtones
Dadamobile and CGR have teamed up to bring your favorite Christian artists right to your phone. Sign up today and get 10 complementary ringtones!
Tab Country
Did you know CGR has a sister site w/ country guitar tabs? Well we do! Its called Tab Country. It has a great archive with a lot of country tabs.
Rockin Tabs
Are you looking for a site that has rock guitar tabs? Then Rockintabs.com is the place for you. It is a budding site with many rock guitar tabs. Submit your tab today.
Tab Gallery
Tab Gallery has a compilation of christian, rock, and country tabs all in one place. Come visit us.