Guitar Tabs
song title    band name

Join Us Today!

Don't strum alone...
be a part of the largest online Christian music community. Browse thousands of guitar tabs and chat w/ musicians like yourself.


It's Free!

Tourniquet - Indulgence by Proxy

This tab has not yet been rated for accuracy.Sorry, but you must be logged in to rate this tab.
Click here to log-in, or you can click here to register.
(Registration is free)

All songs owned by corresponding publishing company. If you make copies of any song on this website, be sure to report your usage to CCLI.
"Indulgence by Proxy"
Album: "Microscopic View of a Telescopic Realm"
Artist: Tourniquet
Words & Music by Ted Kirkpatrick
copyright 2000 Metal Blade Records Inc.
Transcribed by Zeb Lang (03/06/2000)
lang@inetport.com

Tune down to B.  See bottom for order and repetition of riffs.




   (0:22) Riff A                 Fill A   Riff B
-||----------------------------||------||------------------------||-----------
-||----------------------------||------||------------------------||-----------
-||----------------------------||------||------------------------||-----------
-||----------------------------||------||------------------------||-----------
-||----------------------------||-2-3--||------2-----------------||-----------
-||-0-0-0-0-0-0-0-0-0-0-0-0-0--||-0-1--||--0-0-0----0-0-0--0--0--||-----------
                                                                             
   Speed Riff (Guitar 1)
-||------------------------------------------------------------------------||-
-||------------------------------------------------------------------------||-
-||------------------------------------------------------------------------||-
-||------------------------------------------------------------------------||-
-||--222222222222222222----------3322----11111111111111110000000033333333--||-
-||---------------------00223355------33-----------------------------------||-
                                                                              
   Speed Riff (Guitar 2)
-||------------------------------------------------------------------------||-
-||------------------------------------------------------------------------||-
-||--444444444444444444-------2255440033333333333333332222222255555555-----||-
-||---------------------224455---------------------------------------------||-
-||------------------------------------------------------------------------||-
-||------------------------------------------------------------------------||-
                                                                              
   Riff C
-||------------------------------------------------------------------------||-
-||------------------------------------------------------------------------||-
-||------------------------------------------------------------------------||-
-||------------------------------------------------------------------------||-
-||--2-------9---9---2-------10---10---2-------9---9---2-------8---8-------||-
-||--0--0-0--7---7---0--0-0--8----8----0--0-0--7---7---0--0-0--6---6-------||-
                                                                              
   Riff D
-||------------------------------------------------------------------------||-
-||------------------------------------------------------------------------||-
-||------------------------------------------------------------------------||-
-||------------------------------------------------------------------------||-
-||--2-2-2-9-9-9-9-9-2-2-2-10-10-10-10-10-2-2-2-9-9-9-9-9-2-2-2-8-8-8-8-8--||-
-||--0-0-0-7-7-7-7-7-0-0-0-8--8--8--8--8--0-0-0-7-7-7-7-7-0-0-0-6-6-6-6-6--||-
                                                                              

   Slow Part - "He heals the broken hearted, and binds up their wounds"
             Let notes ring..........
-||----------0--------------------------------0----------------------------||-
-||-------------0-------4------4----4------------0------4------4-----4-----||-
-||------------------5------5-----5------------------5------5------5-------||-
-||---2---------------------------------2----------------------------------||-
-||---2---------------------------------0----------------------------------||-
-||---0---------------------------------0----------------------------------||-
                                                                              
   Riff E
-||---------------------------------------------------------------------------
-||---------------------------------------------------------------------------
-||---------------------------------------------------------------------------
-||--------------------------------------1-h-2-p-1-----1----------------------
-||--------2--1-h-2-p-1----1----------2-------------3-------------------------
-||--0--3----------------3------0--3------------------------------------------
                                                                              

------------------------------------------------------------------------------
------------------------------------------------------------------------------
------------------------------------------------------------------------------
---------------------------------------4-h-5-p-4-----3------------------------
---------2--1-h-2-p-1----1----------2-------------5---------------------------
---0--3----------------3------0--3--------------------------------------------
                                                                              

------------------------------------------------------------------------------
------------------------------------------------------------------------------
------------------------------------------------------------------------------
---------------------------------------1-h-2-p-1-----1------------------------
---------2--1-h-2-p-1----1----------2-------------3---------------------------
---0--3----------------3------0--3--------------------------------------------
                                                                              

------------------------------------------------------------------------||----
------------------------------------------------------------------------||----
------------------------------------------------------------------------||----
--------------------------------------------------------------2---------||----
---------2--1-h-2-p-1----1----2-2-2-2-0-0-0-0-----------------2---------||----
---0--3----------------3----------------------3-3-3-3-2-2-2-2-0---------||----
                                                                              
   Riff F (Guitar 1)            Riff G (Guitar 1)
-||--------------------------||-----------------------------------------||----
-||--------------------------||-----------------------------------------||----
-||--------------------------||-----------------------------------------||----
-||-----------5--4-----3--2--||----------------55554444----33332222-----||----
-||--------2--------5--------||------------2222--------5555-------------||----
-||--0--3--------------------||---00003333------------------------------||----
                                                                              
   Riff F (Guitar 2)            Riff G (Guitar 2)
-||-12-10-11-12-10-11-||-------------------------------------15-15-15-15------
-||-------------------||-------------------------12-12-12-12------------------
-||-------------------||-------------12-12-12-12------------------------------
-||-------------------||-14-14-14-14------------------------------------------
-||-------------------||------------------------------------------------------
-||-------------------||------------------------------------------------------
                                                                              

-14-14-14-14-------------13-13-13-13-12-12-12-12----||------------------------
-------------15-15-15-15----------------------------||------------------------
----------------------------------------------------||------------------------
----------------------------------------------------||------------------------
----------------------------------------------------||------------------------
----------------------------------------------------||------------------------
                                                                              


Song Order:

Riff A - 8x
Fill A
Riff A - 4x
Riff B - 4x
Riff A - 4x
Speed Riff - 2x (Guitars 1 & 2)
Riff A - 4x
Fill A
Riff A - 4x
Riff B - 4x
Riff A - 4x
Speed Riff - 4x (Guitars 1 & 2)
Riff A - 4x (Lead plays here)
Fill A
Riff A - 4x
Riff C - 4x
Riff D - 2x
Riff A - 8x
Slow part - 4x
Riff E - 3x (Weird chords come in here, is that a guitar?
Riff A - 8x
Fill A
Riff A - 4x
Riff B - 4x
Riff A - 4x
Riff C - 2x
Riff D - 2x
Speed Riff - 3x (Guitars 1 & 2)
Riff F - 2x (Guitars 1 & 2 - Guitar 2 play multiple times(hardest part))
Riff G - 2x
Riff B - 8x
whew!


Questions, comments, suggestions, complaints, requests:
    lang@inetport.com

Comments about this tab

No comments/corrections found. Add your own

Complimentary Christian Ringtones
Dadamobile and CGR have teamed up to bring your favorite Christian artists right to your phone. Sign up today and get 10 complementary ringtones!
Tab Country
Did you know CGR has a sister site w/ country guitar tabs? Well we do! Its called Tab Country. It has a great archive with a lot of country tabs.
Rockin Tabs
Are you looking for a site that has rock guitar tabs? Then Rockintabs.com is the place for you. It is a budding site with many rock guitar tabs. Submit your tab today.
Tab Gallery
Tab Gallery has a compilation of christian, rock, and country tabs all in one place. Come visit us.