Guitar Tabs
song title    band name

Join Us Today!

Don't strum alone...
be a part of the largest online Christian music community. Browse thousands of guitar tabs and chat w/ musicians like yourself.


It's Free!

Tourniquet - Immunity Vector

This tab has not yet been rated for accuracy.Sorry, but you must be logged in to rate this tab.
Click here to log-in, or you can click here to register.
(Registration is free)

All songs owned by corresponding publishing company. If you make copies of any song on this website, be sure to report your usage to CCLI.
"Immunity Vector"
Album: "Microscopic View of a Telescopic Realm"
Artist: Tourniquet
Music by Ted Kirkpatrick
copyright 2000 Metal Blade Records Inc.
Transcribed by Zeb Lang (03/03/2000)
lang@inetport.com


This is tuned down a half or whole step.  Use alternate picking for the
fast parts.
Does not include flute solo or lead, sorry.


||----------------------------------------------------------------------------
||----------------------------------------------------------------------------
||*---------------------------------------------------------------------------
||*-12-0-0-0-12-0-0-0-12-0-15-0-14-0-12-0--11----------11----------11----14---
||--------------------------------------------12-12-12----12-12-12----12----12
||----------------------------------------------------------------------------



------------------------------------------------------------------------------
------------------------------------------------------------------------------
---------------------------------------------------------------14-------------
-12----11-----12-0-0-0-12-0-0-0-12-0-15-0-14-0-12-0--11-0-14-0----0-11-0-12---
----12----12------------------------------------------------------------------
------------------------------------------------------------------------------



------------||----------------------------------------------------------------
------------||-------------------------------10-------------------------------
-----------*||-10----------10----------10----------12----10-----9----------9--
-0-15-0-12-*||----10-10-10----10-10-10----10----10----10----10----11-11-11----
------------||----------------------------------------------------------------
------------||----------------------------------------------------------------



------------------------------------------------------------------------------
------------------------------------------------------------------------------
----------9----12----10----9--------------------------------------------------
------------11----11----11---11-----------------------------------------------
-12-12-12---------------------------------------------------------------------
------------------------------------------------------------------------------


                                              Repeat from the very beginning
---------------------------------------------------------------------------||-
---------------------------------------------------------------------------||-
--------------------------------------------------14----------------------*||-
-12-0-0-0-12-0-0-0-12-0-15-0-14-0-12-0--11-0-14-0----0-11-0-12-0-15-0-12--*||-
---------------------------------------------------------------------------||-
---------------------------------------------------------------------------||-
                                                                              
(Bass interlude)

(1:07)
------------------------------------------------------------------------------
------------------------------------------------------------------------------
------------------------------------------------------------------------------
-9------------------------------8-----------------------------9---------------
-7--7--7--7--7--7--7-h-10-9-p-7-6--6--6--6--6--6--6-h-9-7-p-6-7--7--7--7--7---
------------------------------------------------------------------------------
                                                                              

------------------------------------------------------------------------------
------------------------------------------------------------------------------
------------------------------------------------------------------------------
-----------------8-----------------9---9-\--2---------------------------------
-7--7-h-10-9-p-7-6--6--6-h-9-7-p-6-7-7-7-\--2---------------------------------
--------------------------------------------0---------------------------------
                                                                              
(1:17)
---||-------------------------------------------------------------------------
---||-------------------------------------------------------------------------
---||*------------------------------------------------------------------------
---||*------------------------------------------------------------------------
-7-||--------7-h-8-10-p-8-7------2-h-5-3-p-2-3--------0----0-h-2-3-p-2-5-p-3--
---||--0-0-0-----------------0-0----------------0-0-----h4--------------------
                                                                              

        Play 4x    (1:34)               (1:41)
--------------||--------------------------------------------------------------
--------------||--------------------------------------------------------------
-------------*||--------4-----------------------------------------------------
-----------2-*||---5----4---2---3---------------3--2--2---3-------------------
-2-p-0-----2--||---5----2---2---3-------------2-------2---3-------------------
-------3-1-0--||---3--------0---1---0---0--3----------0---1-------------------
                                                                              

(1:49)
-||------------------------------------------------------------------------||-
-||------------------------------------------------------------------------||-
-||*----------------------------------------------------------------------*||-
-||*----2--2--2--2--2----2--2--2--2--2----3--3--3--3--3----3--3--3--3--3--*||-
-||-----2--2--2--2--2----2--2--2--2--2----3--3--3--3--3----3--3--3--3--3---||-
-||-----0--0--0--0--0----0--0--0--0--0----1--1--1--1--1----1--1--1--1--1---||-


(2:05 - 2:13) - just play the two chords above


(2:13 - 2:37) - Play (1:17) from above, but slower


(2:38 - 3:27) - Rhythm for flute solo, just repeat a few times.  
------------------------------------------------------------------------------
------------------------------------------------------------------------------
----------------------------------------------0--3-p-2-p-0--5----5------------
-----------0--3-p-2-p-0--2-----2----0-h-1-h-2---------------5----5------------
-0-h-1-h-2---------------2-----2----------------------------3----3------------
-------------------------0-----0----------------------------------------------


(3:28) - Play same chords from (1:49) above, just different rhythm.

(3:57 - 4:28) - Play (1:17) from above, getting progressively faster,
then end on the chord:

-----------
--7--------
--7--------
--5--------
----------- 

(4:29) - repeat beginning

                                                                              
Questions, comments, suggestions, complaints, requests:
    lang@inetport.com

Comments about this tab

No comments/corrections found. Add your own

Complimentary Christian Ringtones
Dadamobile and CGR have teamed up to bring your favorite Christian artists right to your phone. Sign up today and get 10 complementary ringtones!
Tab Country
Did you know CGR has a sister site w/ country guitar tabs? Well we do! Its called Tab Country. It has a great archive with a lot of country tabs.
Rockin Tabs
Are you looking for a site that has rock guitar tabs? Then Rockintabs.com is the place for you. It is a budding site with many rock guitar tabs. Submit your tab today.
Tab Gallery
Tab Gallery has a compilation of christian, rock, and country tabs all in one place. Come visit us.