Guitar Tabs
song title    band name

Join Us Today!

Don't strum alone...
be a part of the largest online Christian music community. Browse thousands of guitar tabs and chat w/ musicians like yourself.


It's Free!

This tab has not yet been rated for accuracy.Sorry, but you must be logged in to rate this tab.
Click here to log-in, or you can click here to register.
(Registration is free)

All songs owned by corresponding publishing company. If you make copies of any song on this website, be sure to report your usage to CCLI.
"Crank The Knife"
From the album "Crawl to China"
by Tourniquet
Words by Luke Easter
Music by Aaron Guerra
copyright 1997 Benson Records
Transcribed by Zeb Lang (04/29/1999)
lang@inetport.com


Intro - strum these chords - Clean guitar with effects (chorus and reverb maybe?)
Eb------------1--------------------------3-----------------------------------------------
Bb------------1--------------------------3-----------------------------------------------
Gb------------2--------------------------4-----------------------------------------------
Db------------3--------------------------5-----------------------------------------------
Ab------------3--------------------------5-----------------------------------------------
Eb------------1--------------------------3-----------------------------------------------
                                                                                         

    Pre Verse                                                                            
Eb---------------------------------------------------------------------------------------
Bb---------------------------------------------------------------------------------------
Gb---------------------------------------------------------------------------------------
Db------------------------2-------------------------2------------------------------------
Ab---------------------2--2----------------------2--2------------------------------------
Eb-------1p0--0-----0-----0--------1p0--0-----0-----0-----0--3p0--3h4--1~~~--------------
         .     .                   .     .                                               

                                                                                         
Eb---------------------------------------------------------------------------------------
Bb--------------------------------------------------------------3-----3~~~---------------
Gb--------------------------------------------------------------2-----2------------------
Db------------------------2-------------------------2------------------------------------
Ab---------------------2--2----------------------2--2------------------------------------
Eb-------1p0--0-----0-----0--------1p0--0-----0-----0--------0---------------------------
         .     .                   .     .              .                                

    Verse 1                                                                              
Eb---------------------------------------------------------------------------------------
Bb---------------------------------------------------------------------------------------
Gb---------------------------------------------------------------------------------------
Db------------------------------------------------------------2--------------------------
Ab---------------------------------------------------------2--2--------------------------
Eb-------1p0--0-----0--1p0--0-----0--1p0-----1p0--0-----0-----0--------------------------
         .     .       .     .               .     .                                     

                                                                                         
Eb---------------------------------------------------------------------------------------
Bb---------------------------------------------------------------------------------------
Gb---------------------------------------------------------------------------------------
Db------------------------------------------------------------2--------------------------
Ab---------------------------------------------------------2--2--------------------------
Eb-------1p0--0-----0--1p0--0-----0--1p0-----1p0--0-----0-----0--0--3p0--3h4--1~~~-------
         .     .       .     .               .     .                                    

                                                                                         
Eb---------------------------------------------------------------------------------------
Bb---------------------------------------------------------------------------------------
Gb---------------------------------------------------------------------------------------
Db------------------------------------------------------------2--------------------------
Ab---------------------------------------------------------2--2--------------------------
Eb-------1p0--0-----0--1p0--0-----0--1p0-----1p0--0-----0-----0--------------------------
         .     .       .     .               .     .                                     

                                                                                         
Eb---------------------------------------------------------------------------------------
Bb---------------------------------------------------------------------3--3~~~-----------
Gb---------------------------------------------------------------------2--2--------------
Db------------------------------------------------------------2--------------------------
Ab---------------------------------------------------------2--2--------------------------
Eb-------1p0--0-----0--1p0--0-----0--1p0-----1p0--0-----0-----0-----0--------------------
         .     .       .     .               .     .           .                         

    Chorus                                                                               
Eb---------------------------------------------------------------------------------------
Bb----------5-------------3----------------5-------------6-------------------------------
Gb----------4-------------2----------2-----4-------------5----------5--------------------
Db----------2-------------0----------2--2--2-------------3----------5--------------------
Ab----------2------------------------0--2---------------------------3--------------------
Eb----------0---------------------------0------------------------------------------------
                                                                                         

    Play Pre-Verse, Verse 2(Same as Verse 1), Chorus, Fill, then Chorus again       Fill               
Eb--------------------------------------------------------------------------------|-----|
Bb--------------------------------------------------------------------------------|-----|
Gb--------------------------------------------------------------------------------|-----|
Db--------------------------------------------------------------------------------|-----|
Ab--------------------------------------------------------------------------------|-----|
Eb--------------------------------------------------------------------------------|/5~~~|
                                                                                         

         1:47 - Tune down to C#                                   4x                     
Eb-------||------------------------------------------------------------||----------------
Bb-------||------------------------------------------------------------||----------------
Gb-------||*----------------------------------------------------------*||----------------
Db-------||*--0-------------------------------0--------3-----/--6--\--*||----------------
Ab-------||---0-----------------3-----3/5~~~--0--------3-----/--6--\---||----------------
C#-------||---0--------3--5--6-----6----------0--------3-----/--6--\---||----------------
                                                                                         

                           Insert Lead Here!
Eb---------------------------------------------------------------------------------------
Bb---------------------------------------------------------------------------------------
Gb---------------------------------------------------------------------------------------
Db------------------------0-----------------------------------------0--------------------
Ab---------------------0--0--------------------------------------0--0--------------------
C#-------1p0--0-----0-----0------------------------1p0--0-----0-----0--------------------
         .     .                                   .     .                                  

    Back to standard tuning                                Play Intro                    
Eb---------------------------------------------------------------------------------------
Bb---------------------------------------------------------------------------------------
Gb---------------------------------------------------------------------------------------
Db------------------------2-------------------------------2------------------------------
Ab---------------------2--2----------------------------2--2------------------------------
Eb-------1p0--0-----0-----0--------------1p0--0-----0-----0------------------------------
         .     .                         .     .                                             

       Verse 3                                                                4x         
Eb--||------------------------------------------------------------------------||---------
Bb--||------------------------------------------------------------------------||---------
Gb--||*----------------------------------------------------------------------*||---------
Db--||*----------------------------------------------------------------------*||---------
Ab--||------------------------------------------------------------------------||---------
Eb--||---1p0--0-----0--1p0--0-----0--1p0--0-----0--1p0--0-----0--1p0h1/3~~~---||---------
              .     .       .     .       .     .       .     .                                  

                                                                                         
Eb--||----------------------------------------------------------------------------||-----
Bb--||----------------------------------------------------------------------------||-----
Gb--||*--------------------------------------------------------------------------*||-----
Db--||*--------------------------------------------------------------------------*||-----
Ab--||----------------------------------------------------------------------------||-----
Eb--||---1p0--0-----0--1p0-----0--1p0--1p0--0--1p0--0--0--1p0-----0--1p0h1/3~~~---||-----
              .     .          .            .       .  .          .                             

    Outro - Clean Guitar                                                                 
Eb--||----------------0-----------------------0------------------------------------------
Bb--||-------------0-----0-----------------0-----0-------------------0-----------0-------
Gb--||*---------0-----------0-----------0-----------0-------------0-----------0----------
Db--||*------5-----------------5-----5-------------------------7-------------------------
Ab--||---7------------------------7--------------------7--7/8--------------7-------------
Eb--||------------------------------------------------------------------8----------------
                                                                                         

                                                                                 3x      
Eb--------------7-----------------------0----------------------------------3p0---||------
Bb-----------0-----0-----------------0-----0-------------------0-----------------||------
Gb--------0-----------0-----------0-----------0-------------0-----------0-------*||------
Db-----5-----------------5-----5-------------------------7----------------------*||------
Ab--7-----------------------7--------------------7--7/8--------------7-----------||------
Eb----------------------------------------------------------------8--------------||------
                                                                                         

                                                                                         
Eb-----------0--||
Bb--------0-----||
Gb-----0--------||
Db--1-----------||
Ab--------------||
Eb--------------||


Questions, comments, suggestions, complaints, requests:

    lang@inetport.com

Comments about this tab

No comments/corrections found. Add your own

Complimentary Christian Ringtones
Dadamobile and CGR have teamed up to bring your favorite Christian artists right to your phone. Sign up today and get 10 complementary ringtones!
Tab Country
Did you know CGR has a sister site w/ country guitar tabs? Well we do! Its called Tab Country. It has a great archive with a lot of country tabs.
Rockin Tabs
Are you looking for a site that has rock guitar tabs? Then Rockintabs.com is the place for you. It is a budding site with many rock guitar tabs. Submit your tab today.
Tab Gallery
Tab Gallery has a compilation of christian, rock, and country tabs all in one place. Come visit us.