Guitar Tabs
song title    band name

Join Us Today!

Don't strum alone...
be a part of the largest online Christian music community. Browse thousands of guitar tabs and chat w/ musicians like yourself.


It's Free!

This tab has not yet been rated for accuracy.Sorry, but you must be logged in to rate this tab.
Click here to log-in, or you can click here to register.
(Registration is free)

All songs owned by corresponding publishing company. If you make copies of any song on this website, be sure to report your usage to CCLI.
Song:Carry the Wounded 
Artist:Tourniquet
Album:Carry the Wounded 
Tabbed by:Justin Parker (GuitJustin@aol.com)

Here it is! I finnally took the liberty of tabbinng out what in my
opinion is one of many of Tourniquet's great songs.   I may have made
a few mistakes.   After all this is my first tab.   However i think i
have included most of the riffs and if uyou are a skilled enough guitarist,
you can figure out the rest.  Hope you enjoy. I feel that this tab will be
the first of many.

Tune all guitars down a 1/2 step.

FIGURE A       INTRO (clean)
Eb[---7--7--7--7--7---8 -------7--7--7--7--7--8----3-------7--7--7--7--7--8----7--5--8---7--3--5--0
Bb[---8--8--8--8--7---8 -------8--8--8--8--7--8----3-------8--8--8--8--7--8----7--5--8---7--3--7--0
Gb[---9--9--9--9--8---9 -------9--9--9--9--8--9----4-------9--9--9--9--8--9----8--6--9---8--4--7--0
Db[---9--9--9--9--9---10------9--9--9--9--9--10---5------9--9--9--9--9--10---9--7-10--9--5--7--2
Ab[---7--7--7--7--9---10------7--7--7--7--9--10---5------7--7--7--7--9--10---9--7-10--9--5--5--2
Eb[------------------7---8-----------------------7--8----3----------------------7--8----7--5--8---7--3------0


FIGURE B        CHORUS (distortion)
Gb[---9--9--9--9-----------------9--9--9--9-----------------9--9--9--9------------------------------7-------
Db[---9--9--9--9--9-10---------9--9--9--9--9-10--5-----9--9--9--9--9--10-9--7-10--9--5--7--2---
Ab[---7--7--7--7--9-10---------7--7--7--7--9-10--5-----7--7--7--7--9--10-9--7-10--9--5--5--2---
Eb[------------------7--8-------------------------7--8--3---------------------7--8--7--5--8---7--3------0---

FIGURE C
Db[--------------------9----------------------------7-----------------------------9-------------10-------9-----2-
Ab[-------7--9--10-----10-----------7--9--10-----9------------7--9--10-----10-----10-----------------2-
Eb[--0-7------------------------0--7------------------------0--7------------------------8---------7----------0-

FILL 1 
Db[----------10----------9---2---]
Ab[-----10-----------9-------2---]
Eb[--8------------7-----------0---]

FIGURE D 
Bb[----12---10---12---8----10---7---8---12---10---12---10---8---7---8---
Gb[----12---11---12---9----11---7---9---12---11---12---11---9---8---9---

FIGURE E        MAIN RIFF 
Db[-------2--2--------------------2------2---------------2--2--------------------2------2--------
Ab[-------2--2--------------------2------2---------------2--2--------------------2------2--------
Eb[--7\--0--0----0--0--0--0---0------0--------7\----0--0----0--0--0--0---0------0------
                    {.....p.m...}                                  {.....p.m...}   

FIGURE F
Gb[--4/5/7/9\4---5------------------5------]
Db[--4/5/7/9\4---5------------------5------]
Ab[--2/3/5/7\2---3--3--3--3--3---3------]
                         {....p.m....}    

          CHORDS FOR FIGURE G
       1    2    3    4    5    6
Eb[--0----0----3----5----------1---]
Bb[--0----0----3----5----------1---]
Gb[--2----0----5----7----------4---]
Db[--2----2----5----7----5----3---]
Ab[--0----2----3----5----5----3---]
Eb[--x----0----x----x----3----1---]

FIGURE G   (very difficult)
       1                  2              1                             2                3               3                
Eb[-------------------------------------------------------------3--0---------------0-------------3--------------3-----
Bb[---------0----0--1-------------0---------0-----0--1----------------------0------------------3----------------3-
Gb[------2----2-----------------0---------2----2---------2----------------0-------------5---------------5----------
Db[----2-----------------------2---------2--------------------------------2-------------5---------------5-------------
Ab[--0----------------------2----------0--------------------------------2-------------3---------------3---------------
Eb[----------------------0---------------------------------------------0-------------------------------------------------

      3                 3                1                                  2            1 
Eb[-----------3-----------------3--------------------------------3--0-------------0---------------------------3--0-
Bb[---------------3-----------------3-----------0----0--1----------------------0-------------0----0--1------------
Gb[-------5-----------------5----------------2----2---------2----------------0------------2----2--------2---------
Db[-----5-----------------5----------------2---------------------------------2-----------2---------------------------
Ab[--3-----------------3----------------0----------------------------------2-----------0-----------------------------
Eb[------------------------------------------------------------------------0--------------------------------------------

       1                 3                   3               3                 3
Eb[----------------0-------------3-----------------3-----------------3-----------------3---------
Bb[--------------0-------------------3-----------------3-----------------3-----------------3-----
Gb[-----------0-------------5------------------5-----------------5----------------5--------------
Bb[---------2-------------5------------------5----------------5-----------------5----------------
Ab[------2-------------3-------------------3---------------3-----------------3-------------------
Eb[---0---------------------------------------------------------------------------------------------

        4                                           4                                
Eb[--------------------------------------------------------------------------------------------------
Bb[--------------5------5--6--5------8---6-------------5------5--6--5------8---6------------
Gb[----------7-----7--------------7-------------------7-----7-------------7---------------------
Db[-------7------------------------------------------7---------------------------------------------
Ab[----5------------------------------------------5------------------------------------------------
Eb[--------------------------------------------------------------------------------------------------

        1                             5    6                   1                            5   6
Eb[----------------------------------------------------1---------------------------------------------------1---
Bb[--------------0-----0--1-----------------------1------------------0------0---1-------------------1-----
Gb[----------2-----2---------2-----------------2------------------2-----2----------2--------------2-------
Db[-------2-----------------------------------3------------------2---------------------------------3----------
Ab[----0------------------------------------3-----------------0----------------------------------3------------
Eb[----------------------------------3----1-------------------------------------------------3--1--------------

        4                                           4
Eb[--------------------------------------------------------------------------------------------------
Bb[--------------5------5--6--5------8---6-------------5------5--6--5------8---6------------
Gb[----------7-----7--------------7-------------------7-----7-------------7---------------------
Db[-------7------------------------------------------7---------------------------------------------
Ab[----5------------------------------------------5------------------------------------------------
Eb[--------------------------------------------------------------------------------------------------

         1                            5    6                   1                            5   6
Eb[----------------------------------------------------1---------------------------------------------------1---
Bb[--------------0-----0--1-----------------------1------------------0------0---1-------------------1-----
Gb[----------2-----2---------2-----------------2------------------2-----2----------2--------------2-------
Db[-------2-----------------------------------3------------------2---------------------------------3----------
Ab[----0------------------------------------3-----------------0----------------------------------3------------
Eb[----------------------------------3----1-------------------------------------------------3--1--------------

This part looks easy but it's quite difficult to figure out but with this
tab it may be a little easier to play.   Guitar 1 plays the chords listed
above while Guitar 2 plays figure G.

 
ORDER
GUITAR 1                                                                       GUITAR 2                         
REST WHILE GUITAR 2 PLAYS FIGURE A             FIGURE A - 3X 
FIGURE A                                                             FIGURE C
FIGURE B                                                             FILL 1
FIGURE D                                                             REST UNTILL CHORUS 
FIGURE E - 4X                                                       FIGURE A 
FIGURE F - 2X                                                       REST UNTILL CHORUS 
FIGURE E - 2X                                                       FIGURE A 
FIGURE F - 4X                                                       FIGURE C 
FIGURE E - 2X                                                       FILL 1     
FIGURE B                                                             FIGURE G 
FIGURE E - 4X                                                       FILL 1 
FIGURE F - 4X                                                       
FIGURE E - 2X
FIGURE B 
FIGURE C
CHORDS FOR FIGURE G
FIGURE E - 4X
FIGURE F - 2X
FIGURE E UNTILL END

That's pretty much it.    There maybe a few mistakes.  I'm not perfect and
I know that.   So if you notice any mistakes on this tab please feel free
to email me at GuitJustin@aol.com.   Thanks and enjoy the tab!

Comments about this tab

No comments/corrections found. Add your own

Complimentary Christian Ringtones
Dadamobile and CGR have teamed up to bring your favorite Christian artists right to your phone. Sign up today and get 10 complementary ringtones!
Tab Country
Did you know CGR has a sister site w/ country guitar tabs? Well we do! Its called Tab Country. It has a great archive with a lot of country tabs.
Rockin Tabs
Are you looking for a site that has rock guitar tabs? Then Rockintabs.com is the place for you. It is a budding site with many rock guitar tabs. Submit your tab today.
Tab Gallery
Tab Gallery has a compilation of christian, rock, and country tabs all in one place. Come visit us.