Guitar Tabs
song title    band name

Join Us Today!

Don't strum alone...
be a part of the largest online Christian music community. Browse thousands of guitar tabs and chat w/ musicians like yourself.


It's Free!

Tourniquet - Caixa De Raiva

This tab has been rated a 5.00 out of 5 for accuracy. (1 vote)Sorry, but you must be logged in to rate this tab.
Click here to log-in, or you can click here to register.
(Registration is free)

All songs owned by corresponding publishing company. If you make copies of any song on this website, be sure to report your usage to CCLI.
NOTE:
There are two versions of this song, i recomend you try both and see
which one you like best.
________________________________________________________________________

                     [===|  VERSION ONE  |===]
________________________________________________________________________


Author/Artist: Tourniquet
Title: Caixa De Raiva
Album: Microscopic View of a Telescopic Realm
Transcribed by: Andrew Spear
Email: tourntabs@hotmail.com

Feel free to send in updates to this tab, I put it together quite
quickly because I had so many requests for it at the website
- http://members.xoom.com/anysite/index2.htm -
so it is probably quite wrong!



E ||---------------------------------------------------------|
B ||---------------------------------------------------------|
G ||----------------------------------------------5-7br------|
D ||--5/7--7--7---7----5--5--5-5/7--10\7--7\5---7-------7-5--|
A ||--5/7--7--7---7----5--5--5-5/7--10\7--7\5----------------|
D ||--5/7--7--7-7-7--7-5--5--5-5/7--10\7--7\5----------------|
               .    .                                                         

E |--------------------------------------------------------------------||
B |--------------------------------------------------------------------||
G |--------------------------------------------------------------------||
D |--5/7--7--7---7----5--5--5-5/7--------------------------------------||
A |--5/7--7--7---7----5--5--5-5/7--------7p5h7p5h7p5--7-5-----7-5------||
D |--5/7--7--7-7-7--7-5--5--5-5/7-7-7-7-------------------9-7-----9-7--||
              .    .             . . .                                        

E ||---------------||
B ||---------------||
G ||---------------||
D ||--0------------||
A ||--0-------2br--||
D ||--0----3-------||
                                                                              

E ||---------------------------|-----------------||
B ||---------------------------|-----------------||
G ||---------------------------|-----------------||
D ||--0-0-0-0-0-0-0-0-0--------|--------0-2-0 ~~-||
A ||--0-0-0-0-0-0-0-0-0--------|--0--2-----------||
D ||--0-0-0-0-0-0-0-0-0-3-5-6--|-----------------||
     . . . . . . . . .                                                        

E |------------------------------------------------------------|
B |------------------------------------------------------------|
G |------------------------------------------------------------|
D |--9--7--9---------9--7--9---------9--7--9--0--2--3--4--5-5--|
A |--9--7--9---------9--7--9---------9--7--9--0--2--3--4--5-5--|
D |--9--7--9--9-9-9--9--7--9--9-9-9--9--7--9--0--2--3--4--5-5--|
             . . .           . . .                                            

E ||------------------------------------------------------------------------||
B ||------------------------------------------------------------------------||
G ||------------------------------------------------------------------------||
D ||--9--7--9------7h9p7----9--7--9------7h9p7----9--7--9--0--2--3--4--5-5--||
A ||--9--7--9--9p7-------7--9--7--9--9p7-------7--9--7--9--0--2--3--4--5-5--||
D ||--9--7--9---------------9--7--9---------------9--7--9--0--2--3--4--5-5--||
                                                                              

E ||------------------------||
B ||------------------------||
G ||------------------------||
D ||--9--7--9--0--3----6----||
A ||--9--7--9--0--3----6----||
D ||--9--7--9--0--3----6----||



That is prety much all of it minus the harmony section, the solo and
a few variations of the above riffs.

Please email me or the tabs site with any corrections or updates.
http://members.xoom.com/anysite/index2.htm
                                                                              

________________________________________________________________________

                     [===|  VERSION TWO  |===]
_______________________________________________________________________


Author/Artist: Tourniquet
Title: Caixa De Raiva
Album: Microscopic View of a Telescopic Realm
Transcribed by: Jesse R Andersen
Email: emailme17@juno.com

^ means bend up, then down


Riff A

B ||--------------------------------------------||
G ||--------------------------------------------||
D ||--------------------------------------------||
A ||--7-/-9-9-9---9---7-7---7-/-9-12-/-9-9-/-7--||
E ||--5-/-7-7-7-x-7-x-5-5-x-5-/-7-10-/-7-7-/-5--||
B ||--------------------------------------------||


Fill 1

B ||----------------
G ||----------------
D ||----------------
A ||--5-7-8-7-5-----
E ||-------------7--
B ||----------------


Riff B

B ||-------------------------------||
G ||-------------------------------||
D ||-------------------------------||
A ||--7-/-9-9-9---9---7-7---7-/-9--||
E ||--5-/-7-7-7-x-7-x-5-5-x-5-/-7--||
B ||-------------------------------||


Fill 2

B ||-----------------------------------------
G ||-----------------------------------------
D ||-----------------------------------------
A ||-----------------------------------------
E ||--5-h-6-h-5-h-6-h-5-h-6-5-------5--------
B ||--------------------------7-6-5---7-6-5--


Riff C

B ||--------------------------------------------------
G ||--------------------------------------------------
D ||--------------------------------------------------
A ||--2------2~---2-----2~-----2------2~----2-----2~--
E ||--2--1~-------2--1~--------2--1~--------2--1~-----
B ||--0-----------0------------0------------0---------


Riff D

B ||-------------------------||
G ||-------------------------||
D ||-------------------------||
A ||-------------------------||
E ||-------------------------||
B ||--0-0-0-0-0-0-0-0-3-5-6--||


Fill 3

B ||--------------------||
G ||--------------------||
D ||--------------------||
A ||--------------------||
E ||--5-7-10-/-12-/-10--||
B ||--------------------||


Riff E

B ||---------------------------------------------------||
G ||---------------------------------------------------||
D ||---------------------------------------------------||
A ||--9-7-9-x-x-x-9-7-9-x-x-x-9-7-9-11-12-14-16-17-17--||
E ||--7-5-7-x-x-x-7-5-7-x-x-x-7-5-7-9--10-12-14-15-15--||
B ||---------------------------------------------------||


Riff F

B ||----------------------------------------------||
G ||----------------------------------------------||
D ||----------------------------------------------||
A ||--9-7-9-x-x-x-9-7-9-x-x-x-9-7-9---------------||
E ||--7-5-7-x-x-x-7-5-7-x-x-x-7-5-7--4-5-7--9-10--||
B ||---------------------------------2-3-5--7--8--||


Riff G

B ||------------------
G ||------------------
D ||------------------
A ||--9-7-9-----------
E ||--7-5-7--4-5---9--
B ||---------2-3---7--


Riff H

B ||-----------------------------------------------------------
G ||-----------------------------------2-6-----4-/-7-6~-----6--
D ||--9---11---16--16-14-16-17-16~---4-------4------------8----
A ||-----------------------------------------------------------
E ||-----------------------------------------------------------
B ||-----------------------------------------------------------

B ||---------------------------||
G ||--9-11-12-7---6--9-9--11^--||
D ||------------8--------------||
A ||---------------------------||
E ||---------------------------||
B ||---------------------------||


Riff I

B ||-----------------------
G ||-----------------------
D ||-----------------------
A ||--7--------------------
E ||--5---5--------5-------
B ||--5-----7-6-5---7-6-5--



Order:
Riff A	Riff B
Fill 1	Fill 2
Riff B	Riff A
Fill 2	Fill 1
Riff A 	Riff B
Fill 1	Fill 2
Riff B 	Riff C
Fill 2	Riff I
Riff A 	Riff C
Fill 1	Stay on Riff D until end 
Riff B	
Fill 2	
Riff C	
Riff D x 12
Fill 3	
Riff E	
Riff F x 2
Riff G	
Riff H	
Riff A	
Fill 1

Comments about this tab

powell1993 - 2006-02-16

sweet tab, awesome band


Add a comment/correction

Complimentary Christian Ringtones
Dadamobile and CGR have teamed up to bring your favorite Christian artists right to your phone. Sign up today and get 10 complementary ringtones!
Tab Country
Did you know CGR has a sister site w/ country guitar tabs? Well we do! Its called Tab Country. It has a great archive with a lot of country tabs.
Rockin Tabs
Are you looking for a site that has rock guitar tabs? Then Rockintabs.com is the place for you. It is a budding site with many rock guitar tabs. Submit your tab today.
Tab Gallery
Tab Gallery has a compilation of christian, rock, and country tabs all in one place. Come visit us.