Guitar Tabs
song title    band name

Join Us Today!

Don't strum alone...
be a part of the largest online Christian music community. Browse thousands of guitar tabs and chat w/ musicians like yourself.


It's Free!

This tab has not yet been rated for accuracy.Sorry, but you must be logged in to rate this tab.
Click here to log-in, or you can click here to register.
(Registration is free)

All songs owned by corresponding publishing company. If you make copies of any song on this website, be sure to report your usage to CCLI.
"A Dog's Breakfast"
From the album "Psycho Surgery"
By Tourniquet
Words by Guy Ritter
Music by Gary Lenaire
copyright 1991 Intense Records
Transcribed by Zeb Lang 02/02/1999
Lang@inetport.com

     Intro
                     8x                    16x
E---||---------------||--||----------------||----------------------|
B---||---------------||--||----------------||----------------------|
G---||*-------------*||--||*--------------*||-----0-h-2-h-4-~~~----|
D---||*-------------*||--||*--6--\--------*||--2-------------------|
A---||---7\----------||--||---7--\---------||----------------------|
E---||--------0--0---||--||---------0--0---||----------------------|
              .  .                  .  .

(0:17) - Alternate picking (down, up, ...) is a must!             11x
E---||------------------------------------------------------------||
B---||------------------------------------------------------------||
G---||*----------------------------------------------------------*||
D---||*----------------------------------------------------------*||
A---||------------------------------------------------------------||
E---||---0--0-----0--0--0--0-----0--0-----0--0--0--0--------------||
         .  .     .  .  .  .     .  .     .  .  .  .                            

                                   (0:37)
E------------------------------------------------------------------|
B------------------------------------------------------------------|
G----------------------------------/10--10--10p9-------------------|
D------------------------------------------------------------------|
A------------------------------------------------------------------|
E---0--0-----0--0--0--0-----0--0------------------0-----0--0--0--0-|
    .  .     .  .  .  .     .  .                  .     .  .  .  .  

E---------------------------|
B---------------------------|
G---------------------------|
D---------------------------|
A---------------------------|
E------0--0-----0--0--0--0--|
       .  .     .  .  .  .

E-------------------------------------------------|
B-------------------------------------------------|
G------------------------------------------4h5p4--|
D-------------------------------------------------|
A-------------------------------------------------|
E---0--0-----0--0--0--0-----0--0-----0------------|
    .  .     .  .  .  .     .  .     .

E-------------------------------------------------|
B-------------------------------------------------|
G-------------------------------------------------|
D-------------------------------------------------|
A-------------------------------------------------|
E---0-----0--0--0--0-----0--0-----0--0--0--0------|
    .     .  .  .  .     .  .     .  .  .  .

E-----------------------------------------------------------------------|
B------------------------------------/--10--10--10--\--9----------------|
G------------------------------------/--10--10--10--\--9----------------|
D-----------------------------------------------------------------------|
A-----------------------------------------------------------------------|
E---0--0-----0--0--0--0-----0--0--------------------------0-----0--0----|
    .  .     .  .  .  .     .  .                          .     .  .            

E---------------------------------|
B---------------------------------|
G---------------------------------|
D---------------------------------|
A---------------------------------|
E---0--0-----0--0-----0--0--0--0--|
    .  .     .  .     .  .  .  .

E-----------------------------------------------------------------------|
B------------------------------------------4--h--5--p--4----------------|
G------------------------------------------4--h--5--p--4----------------|
D-----------------------------------------------------------------------|
A-----------------------------------------------------------------------|
E---0--0-----0--0--0--0-----0--0-----0--------------------0-----0--0----|
    .  .     .  .  .  .     .  .     .                    .     .  .            

E---------------------------------|
B---------------------------------|
G---------------------------------|
D---------------------------------|
A---------------------------------|
E---0--0-----0--0-----0--0--0--0--|
    .  .     .  .     .  .  .  .                                                

E------------------------------------------------|
B---------------------------------------/--10~~~-|
G---------------------------------------/--10----|
D------------------------------------------------|
A------------------------------------------------|
E---0--0-----0--0--0--0-----0--0-----------------|
    .  .     .  .  .  .     .  .                                                

         (0:51)  Funky Groove                                   3x      
E---||---------3--------------3-----------3--------------3------||
B---||---------3--------------3-----------3--------------2------||
G---||*-----------------------0--------------------------0-----*||
D---||*--------------------------------------------------------*||
A---||---2--2--------2--2--2--------2--2--------2--2--2---------||
E---||---0--0--------0--0--0--------0--0--------0--0--0---------||

E---------3--------------3-----------3---------------------------|
B---------3--------------3-----------3---------------------------|
G------------------------0---------------------------------------|
D----------------------------------------------------------------|
A---2--2--------2--2--2--------2--2--------2---------------------|
E---0--0--------0--0--0--------0--0--------0-----5--3--2--3------|
                                                 .  .  .  .

         (1:05)     Whole notes                                 2x      
E---||------------------1-----------------------------3---------||
B---||---5--------------1--------------5--------------3---------||
G---||*--4--------------2--------------4--------------0--------*||
D---||*--2--------------3--------------2--------------0--------*||
A---||---2--------------3--------------2--------------x---------||
E---||---0--------------1--------------0--------------3---------||

E------------------------------------------------|
B------------------------------------------------|
G------------------------------------------------|
D------------------------------------------------|
A------------------------------------------------|
E---0--0-----0--0--0--0-----0--0-----0--0--0--0--|
    .  .     .  .  .  .     .  .     .  .  .  .

E------------------------------------------------|
B------------------------------------------------|
G------------------------------------------------|
D------------------------------------------10----|
A------------------------------------------8-----|
E---0--0-----0--0--0--0-----0--0-----0--0--------|
    .  .     .  .  .  .     .  .     .  .                                       

 Drums stop - Get's Faster!
E------------------------------------------------|
B------------------------------------------------|
G------------------------------------------------|
D---9--------------------------------------------|
A---7--7-----7--7--7--7-----7--7-----7--7--7--7--|
E------------------------------------------------|
       .     .  .  .  .     .  .     .  .  .  .

E------------------------------------------------|
B------------------------------------------------|
G------------------------------------------------|
D------------------------------------------------|
A------------------------------------------------|
E---8--8-----8--8--8--8-----8--8-----8--8--8--8--|
    .  .     .  .  .  .     .  .     .  .  .  .

E------------------------------------------------|
B------------------------------------------------|
G------------------------------------------------|
D------------------------------------------------|
A------------------------------------------------|
E---6--6-----6--6--6--6-----6--6-----6--6--6--6--|
    .  .     .  .  .  .     .  .     .  .  .  .

E------------------------------------------------|
B------------------------------------------------|
G------------------------------------------------|
D------------------------------------------------|
A------------------------------------------------|
E---5--5-----5--5--5--5-----5--5-----5--5--5-----|
    .  .     .  .  .  .     .  .     .  .  .

E------------------------------------------------|
B------------------------------------------------|
G------------------------------------------------|
D---9--------------------------------------------|
A---7--7-----7--7--7--7-----7--7-----7--7--7--7--|
E------------------------------------------------|
       .     .  .  .  .     .  .     .  .  .  .

E------------------------------------------------|
B------------------------------------------------|
G------------------------------------------------|
D------------------------------------------------|
A------------------------------------------------|
E---8--8-----8--8--8--8-----8--8-----8--8--8--8--|
    .  .     .  .  .  .     .  .     .  .  .  .

E------------------------------------------------|
B------------------------------------------------|
G------------------------------------------------|
D------------------------------------------------|
A------------------------------------------------|
E---6--6-----6--6--6--6-----6--6-----6--6--6--6--|
    .  .     .  .  .  .     .  .     .  .  .  .

                          (1:36) - Verse 1       8x
E------------------------------||----------------||
B------------------------------||----------------||
G------------------------------||*--------------*||
D---------------------7--------||*--------------*||
A---------------------4--------||----------------||
E---6--6-----6--6--6--5--------||---3--3--3--3---||  (16th notes)
    .  .     .  .  .                .  .  .  .

                      6x                          8x
E---||----------------||--------||----------------||
B---||----------------||--------||----------------||
G---||*--------------*||--------||*--------------*||
D---||*--------------*||--------||*--------------*||
A---||----------------||-->-----||----------------||
E---||---4--4--4--4---||--4-----||---3--3--3--3---||
         .  .  .  .       .          .  .  .  .

                      8x
E---||----------------||
B---||----------------||
G---||*--------------*||
D---||*--------------*||
A---||---1--1--1--1---||
E---||----------------||
         .  .  .  .

                              Pick Scrape
E---------------------------|
B---------------------------|
G---------------------------|
D---3--------------------6--|
A---1--------------------4--|
E---1--------------------4--|

                      8x                    6x
E---||----------------||--||----------------||----------|
B---||----------------||--||----------------||----------|
G---||*--------------*||--||*--------------*||----------|
D---||*--------------*||--||*--------------*||--6--6--6-|
A---||----------------||--||----------------||--6--6--6-|
E---||---3--3--3--3---||--||---4--4--4--4---||--4--4--4-|
         .  .  .  .            .  .  .  .       .  .  .

                      8x                    8x
E---||----------------||--||----------------||
B---||----------------||--||----------------||
G---||*--------------*||--||*--------------*||
D---||*--------------*||--||*--------------*||
A---||----------------||--||---1--1--1--1---||
E---||---3--3--3--3---||--||----------------||
         .  .  .  .            .  .  .  .

E------------------------------|
B------------------------------|
G------------------------------|
D---3--------6-----------------|
A---1--------4--------4--4--4--|
E---1--------4--------4--4--4--|
                      .  .  .

         (2:10) - Chorus
E---||---------------------------------------|
B---||---------------------------------------|
G---||*--------------------------------------|
D---||*--------------------------------------|
A---||------------------------------------7--|
E---||---0--0-----0--0--0--0-----0--0-----5--|
         .  .     .  .  .  .     .  .

E------------------------------------|
B------------------------------------|
G------------------------------------|
D---------------------------------4--|
A---------------------------------2--|
E---3--3-----3--3--3--3-----3--3-----|
    .  .     .  .  .  .     .  .

E------------------------------------------------|
B------------------------------------------------|
G---2--------------------------------------------|
D---2--------------------------------------------|
A---0--0-----0--0--0--0-----0--0-----0--0--0--0--|
E------------------------------------------------|
       .     .  .  .  .     .  .     .  .  .  .

E------------------------------------------------|
B------------------------------------------------|
G------------------------------------------------|
D------------------------------------------------|
A------------------------------------------------|
E---1--1-----1--1--1--1-----1--1-----1--1--1--1--|
    .  .     .  .  .  .     .  .     .  .  .  .

E---------------------------------------|
B---------------------------------------|
G---------------------------------------|
D---------------------------------------|
A------------------------------------7--|
E---0--0-----0--0--0--0-----0--0-----5--|
    .  .     .  .  .  .     .  .

E------------------------------------|
B------------------------------------|
G------------------------------------|
D---------------------------------4--|
A---------------------------------2--|
E---3--3-----3--3--3--3-----3--3-----|
    .  .     .  .  .  .     .  .

E------------------------------------------------|
B------------------------------------------------|
G---2--------------------------------------------|
D---2--------------------------------------------|
A---0--0-----0--0--0--0-----0--0-----0--0--0--0--|
E------------------------------------------------|
       .     .  .  .  .     .  .     .  .  .  .

E---------------------------|
B---------------------------|
G---------------------------|
D------------------------5--|
A------------------------3--|
E---1--1-----1--1--1--1--3--|
    .  .     .  .  .  .

    (2:24)  Repeat Funky Groove (See 0:51)
       (2:40)
E---------------------------|
B---8~~~--7~~~--------------|
G---------------9~~~--6~~~--|
D---------------------------|
A---------------------------|
E---------------------------|

  Fast!
E-------------------------------------------------|
B-------------------------------------------------|
G-------------------------------------------------|
D-------------------------------------------------|
A---7~~~------------------------------------------|
E---------0--0--0--0--0--0--0--0--0--0--0--0------|
          .  .  .  .  .  .  .  .  .  .  .  .

E-------------------------------------------------|
B-------------------------------------------------|
G-------------------------------------------------|
D-------------------------------------------------|
A---6h7p6~~~--------------------------------------|
E-------------0--0--0--0--0--0--0--0--0--0--0--0--|
              .  .  .  .  .  .  .  .  .  .  .  .

E-------------------------------------------------|
B-------------------------------------------------|
G-------------------------------------------------|
D-------------------------------------------------|
A---5h6p5~~~--------------------------------------|
E-------------0--0--0--0--0--0--0--0--0--0--0--0--|
              .  .  .  .  .  .  .  .  .  .  .  .

E--------------------------------------------------------|
B--------------------------------------------------------|
G--------------------------------------------------------|
D--------------------------------------------------------|
A---4h5p4~~~---------------------------------------------|
E-------------0--0--0--0--0--0--0--0--0--0--0--0---------|
              .  .  .  .  .  .  .  .  .  .  .  .

E---||---------------------------------------------------|
B---||---------------------------------------------------|
G---||*--------------------------------------------------|
D---||*--6--/--7--\--6-----------------------------------|
A---||---7--/--8--\--7-----------------------------------|
E---||------------------0--0--0--0--0--0--0--0--0--0--0--|
                        .  .  .  .  .  .  .  .  .  .  .  .

E--------------------------------------------------------|
B--------------------------------------------------------|
G--------------------------------------------------------|
D---5--/--6--\--5----------------------------------------|
A---6--/--7--\--6----------------------------------------|
E------------------0--0--0--0--0--0--0--0--0--0--0--0----|
                   .  .  .  .  .  .  .  .  .  .  .  .

E--------------------------------------------------------|
B--------------------------------------------------------|
G--------------------------------------------------------|
D---4--/--6--\--4----------------------------------------|
A---5--/--7--\--5----------------------------------------|
E------------------0--0--0--0--0--0--0--0--0--0--0--0----|
                   .  .  .  .  .  .  .  .  .  .  .  .

                                                        3x
E-------------------------------------------------------||
B-------------------------------------------------------||
G------------------------------------------------------*||
D---3--/--4--\--3--------------------------------------*||
A---4--/--5--\--4---------------------------------------||
E------------------0--0--0--0--0--0--0--0--0--0--0--0---||
                   .  .  .  .  .  .  .  .  .  .  .  .

       Lead starts                                      4x
E---||--------------------------------------------------||
B---||--------------------------------------------------||
G---||*------------------------------------------------*||
D---||*------------------------------------------------*||
A---||--------------------------------------------------||
E---||---1h3--3--3--3--3--3--3--3--3--3--3--3--3--3--3--||
              .  .  .  .  .  .  .  .  .  .  .  .  .  .

    Verse 2 - Same as Verse 1
    Repeat Chorus        Outro           7x
E----------------------||----------------||-------------||
B----------------------||----------------||-------------||
G----------------------||*--------------*||-------------||
D----------------------||*--6--\--------*||-------------||
A----------------------||---7--\---------||-------------||
E----------------------||---------0--0---||--0--0--0--0-||
                                  .  .       .  .  .  .

"A huge funnel rips across the Ohio River, passes just west of
 Cincinnati, roars on through Hamilton County..."

...Coming soon to a guitar tab web page near you.


Questions, comments, suggestions, complaints, requests:
    Lang@inetport.com

Comments about this tab

No comments/corrections found. Add your own

Complimentary Christian Ringtones
Dadamobile and CGR have teamed up to bring your favorite Christian artists right to your phone. Sign up today and get 10 complementary ringtones!
Tab Country
Did you know CGR has a sister site w/ country guitar tabs? Well we do! Its called Tab Country. It has a great archive with a lot of country tabs.
Rockin Tabs
Are you looking for a site that has rock guitar tabs? Then Rockintabs.com is the place for you. It is a budding site with many rock guitar tabs. Submit your tab today.
Tab Gallery
Tab Gallery has a compilation of christian, rock, and country tabs all in one place. Come visit us.