Guitar Tabs
song title    band name

Join Us Today!

Don't strum alone...
be a part of the largest online Christian music community. Browse thousands of guitar tabs and chat w/ musicians like yourself.


It's Free!

This tab has not yet been rated for accuracy.Sorry, but you must be logged in to rate this tab.
Click here to log-in, or you can click here to register.
(Registration is free)

All songs owned by corresponding publishing company. If you make copies of any song on this website, be sure to report your usage to CCLI.
Title: Wings
Artist: Wide Awake
Album: Thread
Copyright 2000 (?) True Tunes Records, Rhythm House Records, LLC
Tabbed by: Matthew Trent (term@linux.com) 1/6/2001

Ok, this is a pretty much unknown band right now, but I did find their
CD at my local Christian book store, so they’re up and coming. It’s some
of the best stuff I’ve ever heard, and this song has a particularly
sweet intro, so I sat down and figured it out. To get the strums just
right you really have to listen to it. www.threadmusic.com would be a
good place to start.

There’s a rather long solo at the end that I didn’t bother with, but
you should be able to make it sound ok by playing around on the high
E at the 6, 8 and 10th frets, among others.

And I still haven’t quite figured out if the band’s name is Thread or
Wide Awake. Oh well, one is the album name and one is the band name. ;-)

Capo on 3rd fret. All numbers relative to 0th fret (ie, NOT the capo).


Intro and verses (repeat)

e |-13----13-13-13----10-10-10-10-10----6--8--6--8--8--6--6--6-------
B |-11----11-11-11----8--8--8--8--8-----4--6--4--6--6--4--4--4-------
G |-0-----0--0--0-----0--0--0--0--0-----0--0--0--0--0--0--0--0-------
D |------------------------------------------------------------------
A |------------------------------------------------------------------
E |------------------------------------------------------------------

e |/13----13-13-13----10-10-10-10-10----6--8--6--5--5--6--6--6-/13---
B |/11----11-11-11----8--8--8--8--8-----4--6--4--4--4--4--4--4-/11---
G |/0-----0--0--0-----0--0--0--0--0-----0--0--0--0--0--0--0--0-/0----
D |------------------------------------------------------------------
A |------------------------------------------------------------------
E |------------------------------------------------------------------


Chorus (strum these chords, go from A7 to A pretty quick)

Em    A7 A     C     G
e |----------------------6-----
B |-------5--5-----4-----6-----
G |----------5-----------------
D |-5-----5--5-----5-----------
A |-5--------------6-----5-----
E |----------------6-----6-----


Bridge (strum these chords)

Em    C     G
e |-------------6-----
B |-------4-----6-----
G |-------------------
D |-5-----5-----------
A |-5-----6-----5-----
E |-------6-----6-----


Outtro (strum it for a while, then slide down)

e |-----13---\0----
B |-----11---\0----
G |-----0----\0----
D |----------------
A |----------------
E |----------------

Enjoy!

Comments about this tab

LeftshoeBob - 2006-06-24

There's a WideAwake worship band somewhere around UTA (Arlington, TX). I've never heard them-or this-before though so...I don't know if this is them or not. Could be.


mjdoughboy - 2006-08-28

If this is the same Wide Awake i know...they started out calling themselves "common thread". they had to change their name to just "thread" and again because other bands already having those names, they changed again to the title of their first disc..."wide awake". they are from marysville washington and their stuff is great.


Add a comment/correction

Complimentary Christian Ringtones
Dadamobile and CGR have teamed up to bring your favorite Christian artists right to your phone. Sign up today and get 10 complementary ringtones!
Tab Country
Did you know CGR has a sister site w/ country guitar tabs? Well we do! Its called Tab Country. It has a great archive with a lot of country tabs.
Rockin Tabs
Are you looking for a site that has rock guitar tabs? Then Rockintabs.com is the place for you. It is a budding site with many rock guitar tabs. Submit your tab today.
Tab Gallery
Tab Gallery has a compilation of christian, rock, and country tabs all in one place. Come visit us.