Guitar Tabs
song title    band name

Join Us Today!

Don't strum alone...
be a part of the largest online Christian music community. Browse thousands of guitar tabs and chat w/ musicians like yourself.


It's Free!

Thousand Foot Krutch - Set It Off

This tab has been rated a 4.00 out of 5 for accuracy. (1 vote)Sorry, but you must be logged in to rate this tab.
Click here to log-in, or you can click here to register.
(Registration is free)

All songs owned by corresponding publishing company. If you make copies of any song on this website, be sure to report your usage to CCLI.
Artist: Thousand Foot Krutch
Song:  Set it Off
Album:  Set it Off
Tabbed by: Dan Stronks
rowmeo_182@hotmail.com

Drop-D tuning

clean verse/intro
e|-----------------------|---------------------|
b|-----------------------|---------------------|
g|-----------------------|---------------------|
d|-----------------5-3---|---------------------|
a|-0-0------3-5-3--------|-0-0------3-5-3-0----|
d|-0-0--3h5--------------|-0-0--3h5---------3--|
pm* *                   pm* *

Distorted Verse
e|-----------------------|---------------------|
b|-----------------------|---------------------|
g|-----------------------|---------------------|
d|-----------------5-3---|---------------------|
a|-0-0------3-5-3--------|-0-0------3-5-3-0----|
d|-0-0--3h5--------------|-0-0--3h5---------3--|
pm* *                   pm* *

e|-----------------------|---------------------|
b|-----------------------|---------------------|
g|-----------------------|---------------------|
d|-----------------5-3---|---------------------|
a|-0-0------3-5-3--------|-0-0------3555330-3-3|
d|-0-0--3h5--------------|-0-0--3h5---------3-3|
pm* *                   pm* *  * * ******

Clean Bridge  part

e|-----------------------|------|------|------|----------------------|
b|-----------------------|------|------|------|----------------------|
g|-----------------------|--0/--|--0/--|--0/--|----------------------|
d|-----------------------|--/0--|--/0--|--/0--|-------------.-.------|
a|0-00-3h5-00-8h10-00-7-6|------|------|------|0-00-3h5-00-10-8-6/7-7|
d|0-00-3h5-00-8h10-00-7-6|------|------|------|0-00-3h5-00-10-8-6/7-7|

Distored Bridge 
e|-----------------------|------|------|------|---------------------------|
b|-----------------------|------|------|------|---------------------------|
g|-----------------------|--0/--|--0/--|--0/--|---------------------------|
d|-----------------------|--/0--|--/0--|--/0--|---------------------------|
a|0-00-3h5-00-8h10-00-7-6|------|------|------|0-00-3h5-00-10h12-8\7-6/7-7|
d|0-00-3h5-00-8h10-00-7-6|------|------|------|0-00-3h5-00-10h12-8\7-6/7-7|
pm*                                          pm*
After last Time:
e|-------|
b|-------|
g|-------|
d|-------|
a|7\0~~~-|
d|7\0~~~-|

(clean):
e|-----------------------|---------------------|
b|-----------------------|---------------------|
g|------------2----------|---------------------|
d|------------2----------|---------------------|
a|2/3-x-22-33-2--2-22/3-3|2/3-x-22/3\22--00-0-0|
d|2/3-x-22-33-2--2-22/3-3|2/3-x-22/3\22--00-0-0|

The Turntable Part right after is the same as above, but distorted.
The rhythm on it is tricky.
END ON:
e|--------|
b|--------|
g|--------|
d|--------|
a|0~~~~~--|
d|0~~~~~--|

I Didnít write when you repeat riffs and how many times, you can
figure that out.
*=palm muted
/=slide up
\=slide down
.= staceto
Thatís All!
Enjoy

Comments about this tab

Dani_Boy - 2006-04-23

g|--0/--|--0/--|--0/--|
d|--/0--|--/0--|--/0--|

What does this mean??


Dani_Boy - 2006-04-23

The distorted part close to the end uses lots of scratching. I haven't checked your whole tab yet, it might be really good, but it seems to have a few mistakes. Sorry. I'll check it through more throughly later


Add a comment/correction

Complimentary Christian Ringtones
Dadamobile and CGR have teamed up to bring your favorite Christian artists right to your phone. Sign up today and get 10 complementary ringtones!
Tab Country
Did you know CGR has a sister site w/ country guitar tabs? Well we do! Its called Tab Country. It has a great archive with a lot of country tabs.
Rockin Tabs
Are you looking for a site that has rock guitar tabs? Then Rockintabs.com is the place for you. It is a budding site with many rock guitar tabs. Submit your tab today.
Tab Gallery
Tab Gallery has a compilation of christian, rock, and country tabs all in one place. Come visit us.