Guitar Tabs
song title    band name

Join Us Today!

Don't strum alone...
be a part of the largest online Christian music community. Browse thousands of guitar tabs and chat w/ musicians like yourself.


It's Free!

Thousand Foot Krutch - Lift It Up

This tab has been rated a 4.50 out of 5 for accuracy. (6 votes)Sorry, but you must be logged in to rate this tab.
Click here to log-in, or you can click here to register.
(Registration is free)

All songs owned by corresponding publishing company. If you make copies of any song on this website, be sure to report your usage to CCLI.
Lift it Up
Thousand Foot Krutch
tabbed by:Brandon Crismon

The chords used in this song aren’t exactly the ones
written into the lyrics. i just used them concerning the
space. To see the real (REAL) chords, look at the chart
at the bottom of the file. 

 Intro-

Bass:
E-8---8-10---8-10-12-0-
a----------------------
d----------------------
g----------------------

 Verse-
(C  D  Em) x4

 Pre-chorus-
(C  D  Em) x2

 Chorus-
(C  D  G  G/F#  Em) x2
 C  D  G  Em


 CHORDS--
  C  D  Em  G  G/F#
E-x-—x--0---3--2--
a-3--0--2---2--2--
d-2--0--2---0--0--
g-0--2--0---0--0--
b-3--3--3---3--3--
e-3--3--3---3--3--

Comments about this tab

mizo_axeman - 2004-02-13

a bid hard to read cause it is tabbed upside down, but useful.


punkrawkjedi - 2004-04-15

yeah...


linuxpenguin - 2004-06-05

the bass is way off
goes like this...

first time:
g|----------------------------------------|
d|----------------------------------------|
a|-0-2-3---23/5---3-5-7---------7---------|
E|----------------------0-----0---00-0-0--|

rest of song:
first time:
g|---------------------------------------|
d|---------------------------------------|
a|-0-2-3---3/5---3-5-7---------7---------|
E|---------------------0-----0---00-0-0--|

there ya go


chickwithguitar - 2005-01-21

litte hard to read but u got the right id, love this song!


theNickster14 - 2005-05-17

you both have the begining wrong. heres what I think:

e--4h6~8---6h8~10---8h10~12-0--0h12-12-0-0-----------
a----------------------------------------------------
d----------------------------------------------------
g----------------------------------------------------


theNickster14 - 2005-05-17

oh yeah, heres what the symbols mean:

h = hammer
~ = slide


Elijah Martinez - 2005-09-23

You got the C D Em right for the verses and the C D G Em for the chorus. For bass it is:
(verse)
e:
B:
G:2 fret then third
D:5 fret/or open G string then second
A:3 fret play first
E:

(chorus)
e:
B:
G:2 fret last
D:5 fret/or open G string second
A:3 fret play first
E:3 fret third


ice_wiz - 2006-03-21

You can get this exact tab with the chords over the lyrics on ultimate-guitar.com. (Just some info for the noobs;))


Add a comment/correction

Complimentary Christian Ringtones
Dadamobile and CGR have teamed up to bring your favorite Christian artists right to your phone. Sign up today and get 10 complementary ringtones!
Tab Country
Did you know CGR has a sister site w/ country guitar tabs? Well we do! Its called Tab Country. It has a great archive with a lot of country tabs.
Rockin Tabs
Are you looking for a site that has rock guitar tabs? Then Rockintabs.com is the place for you. It is a budding site with many rock guitar tabs. Submit your tab today.
Tab Gallery
Tab Gallery has a compilation of christian, rock, and country tabs all in one place. Come visit us.