Guitar Tabs
song title    band name

Join Us Today!

Don't strum alone...
be a part of the largest online Christian music community. Browse thousands of guitar tabs and chat w/ musicians like yourself.


It's Free!

Burlap To Cashmere - Treasures in Heaven

This tab has not yet been rated for accuracy.Sorry, but you must be logged in to rate this tab.
Click here to log-in, or you can click here to register.
(Registration is free)

All songs owned by corresponding publishing company. If you make copies of any song on this website, be sure to report your usage to CCLI.
Burlap to Cashmere
Treasures in Heaven
1998 A&M Records Inc.
Tabbed by Andrew Hare
 

 Verses:  (Pick and Slap)
 
 e -----x-----   -----x-----
 B --3--x--3--   --3--x--3--
 G --0--x--0--   -----x-----
 D -----x-----   --2--x--2--
 A --3--x--3--   --3--x--3--
 E -----x-----   -----x-----
 

 e -----x----- --0--0--0--3--
 B --3--x--3--   --3--3--------
 G --4--x--4--   --------------
 D -----x-----   --------------
 A --2--x--2--   --3--3--------
 E -----x-----   --------------
 
Bridge:
         C             Em
 I've seen you crying
 
  C         Em
 I've seen you on your knees 
 
         C            Em
 The wise man died so you could
 
Chorus:
         G         C2 
 Store up treasures in heaven 
 
         G         C2 
 Store up treasures in heaven
 
  G         C2
 Store up treasures in heaven
 
 Em2        G
 Don't you wait 
 
         C2                           D                 
 For the rain to come falling down
 

Solo:
 
 e ----------------------------------------------------
 B -------7h8-----10--10/12/10--8--7-------------------
 G --7h9-------9----------------------9--7--7--7--5--4-
 D ----------------------------------------------------
 A ----------------------------------------------------
 E ----------------------------------------------------
 
 e ---------------------8p7--------10p7--------12------
 B --------------------------8-----------8-------------
 G --5/7/5--4--5--7--7----------7-----------7------11--
 D ----------------------------------------------------
 A ----------------------------------------------------
 E ----------------------------------------------------
 
 e -----------10--10--10--8--8--8--7--7--7-------------
 B -----------------------------------------10--10--10-
 G --9--7--9-------------------------------------------
 D ----------------------------------------------------
 A ----------------------------------------------------
 E ----------------------------------------------------
 
 e ----------------------------------------------------
 B --8--8--8--7--7--7----------------------------------
 G --------------------9--9--9--5--4--5/7/5--4--5--5/7-
 D ----------------------------------------------------
 A ----------------------------------------------------
 E ----------------------------------------------------
 
 e ---------------10------
 B -----7--8--10------10--
 G --9--------------------
 D -----------------------
 A -----------------------
 E -----------------------
 
Bridge:
        C(add6)          
 You gotta stop dancing
 
         Em7
 Dancing with your head
 
Chords:
 G:       320033
 C2:      X32033
 C(add6): 032030
 Em2:     022033
 Em7:     022030
 Em:      022000
 C:       332010
 D:       XX0232     

I tried my best and I know that someone else has already tabbed this
but I made a few corrections and added the solo. I hope this is clear!

Comments about this tab

Guitar323k13l - 2006-08-30

I think your C chord should be 032010, cause what you have as a C....well....isnt


Add a comment/correction

Complimentary Christian Ringtones
Dadamobile and CGR have teamed up to bring your favorite Christian artists right to your phone. Sign up today and get 10 complementary ringtones!
Tab Country
Did you know CGR has a sister site w/ country guitar tabs? Well we do! Its called Tab Country. It has a great archive with a lot of country tabs.
Rockin Tabs
Are you looking for a site that has rock guitar tabs? Then Rockintabs.com is the place for you. It is a budding site with many rock guitar tabs. Submit your tab today.
Tab Gallery
Tab Gallery has a compilation of christian, rock, and country tabs all in one place. Come visit us.