Guitar Tabs
song title    band name

Join Us Today!

Don't strum alone...
be a part of the largest online Christian music community. Browse thousands of guitar tabs and chat w/ musicians like yourself.


It's Free!

Burlap To Cashmere - Treasures in Heaven

This tab has been rated a 4.00 out of 5 for accuracy. (3 votes)Sorry, but you must be logged in to rate this tab.
Click here to log-in, or you can click here to register.
(Registration is free)

All songs owned by corresponding publishing company. If you make copies of any song on this website, be sure to report your usage to CCLI.
Treasures in Heaven
    -Burlap to Cashmere
    -Copyright 1998 squint entertainment, under A&M records, a polygram co.


Well, here's my first attempt at Tabs.. This is a great song, and sounds good 
to play along to the CD with. Make sure you get the slaps in there for the 
verses, and feel free to E-mail me with comments, suggestions, corrections 
etc.. Sneetch99@aol.com   -- Zach Baliva


    The verses consist of 4 different positions being picked & slapped

1.                    2.                 3. (Bm)          4.

-----------       ------0-----      -----------       --------------
--3-------        ------------       ---2------       ---3---------
-----------       ------------       ----------        -------------  
--0-------        ------0----       ----4-----       ----4---------
--3-------       -------3----       ----3-----       ----5--------
-----------       -----------        -----------      -----------(3)-  <---- 
play that 3 at very end..listen to cd

 ..he said..      Follow me     .......               Oh-oh


Bridge:

    C                  Em
I've Seen you crying

    C                    Em
I've seen you on your knees

     C                 Em
The wise man died so you can..

Chorus:
       
      G        Gsus4         
Store up treasures in heaven (3x)

     G                 Gsus4                                 D
Don't you wait for the rain to come falling down

            Then back to same slapping patterns for verse 2.
            On the chorus, C sounds okay instead of Gsus4, which is 0 3 2 0 2 
2
            To play Gsus4, just move top 2 fingers down a string after a G 
chord.

Comments about this tab

YESILOVEMYJESUS - 2004-10-18

uh, those intro tabs really confused me cuz they were upside down, so here it is the way i like it

---------- ---------- ---------- ----------
--3------- -----3---- ----3----- ----5-----
--0------- -----0---- ----4----- ----4-----
---------- ---------- ---------- ----------
--3------- ---------- ----2----- ----3-----
---------- -----0---- ---------- ----------


YESILOVEMYJESUS - 2004-10-18

oh, another addition
e---------- ---------- ---------- ----------
B--3------- -----3---- ----3----- ----5-----
G--0------- -----0---- ----4----- ----4-----
D---------- ---------- ---------- ----------
A--3------- ---------- ----2----- ----3-----
E---------- -----0---- ---------- ----------


Guitar323k13l - 2006-08-30

if you move your top 2 fingers down a string each thats a Cadd9 not a Gsus4


Add a comment/correction

Complimentary Christian Ringtones
Dadamobile and CGR have teamed up to bring your favorite Christian artists right to your phone. Sign up today and get 10 complementary ringtones!
Tab Country
Did you know CGR has a sister site w/ country guitar tabs? Well we do! Its called Tab Country. It has a great archive with a lot of country tabs.
Rockin Tabs
Are you looking for a site that has rock guitar tabs? Then Rockintabs.com is the place for you. It is a budding site with many rock guitar tabs. Submit your tab today.
Tab Gallery
Tab Gallery has a compilation of christian, rock, and country tabs all in one place. Come visit us.