Guitar Tabs
song title    band name

Join Us Today!

Don't strum alone...
be a part of the largest online Christian music community. Browse thousands of guitar tabs and chat w/ musicians like yourself.


It's Free!

Switchfoot - Loser, The

This tab has been rated a 2.75 out of 5 for accuracy. (4 votes)Sorry, but you must be logged in to rate this tab.
Click here to log-in, or you can click here to register.
(Registration is free)

All songs owned by corresponding publishing company. If you make copies of any song on this website, be sure to report your usage to CCLI.
Song: The Loser
Band: Switchfoot
CD: Learning To Breathe
Label: Rethink / Sparrow
Tabbed by: Jeff (Noo1home@aol.com)

Playing Tips:

 Listen to the CD for accurate playing, this is one of those songs that
are hard to write out ho they play it.  
 Play Riff 1 with a High Gain, Fuzz Distortion. 
 The verses sound best when playing along with a bass guitar. If you
don't have a bassist, you can play the optional notes, and it will
sound ok, but most of the note changes are on bass.

Riff 1

e---4--4h5p4-4--4-4--(5)--(5)----4--4h5p4-4--4-4--(0)-----
B--(5)---------------(5)--(5)---(5)---------------(2)-----
G--(4)----------------6----6----(4)----------------2------
D---------------------7----7-----------------------2------
A---------------------7----7-----------------------0------ 
E---------------------5----5-----------------------0------

Riff 2

e------------5--|-----------------4--|--------
B------------5--|-----------------4--|--------
G------------6--|-----------------5--|--------
D--(x)-(x)---7--|-PM----(x)-(x)---6--|-PM-----
A--(x)-(x)--(7)-|-------(x)-(x)--(6)-|--------
E--(x)-(x)--(5)-|-------(x)-(x)--(4)-|--------

This tab isn't complete, but it should be accurate. If someone wants to
use this to finish the tab, feel free to.

Comments about this tab

wannabeerocker - 2005-12-30

This has help a lot thanx for it




GOD ROCKS!!!!!!!!!!!!!!!!!!!!!!!!!!!!!!!!!!!!!!!!!


Add a comment/correction

Complimentary Christian Ringtones
Dadamobile and CGR have teamed up to bring your favorite Christian artists right to your phone. Sign up today and get 10 complementary ringtones!
Tab Country
Did you know CGR has a sister site w/ country guitar tabs? Well we do! Its called Tab Country. It has a great archive with a lot of country tabs.
Rockin Tabs
Are you looking for a site that has rock guitar tabs? Then Rockintabs.com is the place for you. It is a budding site with many rock guitar tabs. Submit your tab today.
Tab Gallery
Tab Gallery has a compilation of christian, rock, and country tabs all in one place. Come visit us.