Guitar Tabs
song title    band name

Join Us Today!

Don't strum alone...
be a part of the largest online Christian music community. Browse thousands of guitar tabs and chat w/ musicians like yourself.


It's Free!

Burlap To Cashmere - Digee Dime

This tab has not yet been rated for accuracy.Sorry, but you must be logged in to rate this tab.
Click here to log-in, or you can click here to register.
(Registration is free)

All songs owned by corresponding publishing company. If you make copies of any song on this website, be sure to report your usage to CCLI.
"Digee Dime"
By Burlap to Cashmere
Off the album "Anybody out there?"
Written by Steven Delopoulos
(C) 1997 Steven Delopoulos Publishing (ASCAP)
From: Myron Marston (marston@foxcomm.net)

I'm not sure if they play this open or with a capo @ 3rd fret,
so I put both chord formations at the bottom.  I think they may 
do both since they have 3 guitar players.  Anyway, enjoy.

Chorus Riff:                      OR:                    
e----------------------------------|-7--7--8--10----7--7--10--8--
B-12--12--13--15----12--12--15--13-|-8--8--8---8----8--8---8--8--
G-12--12--12--12----12--12--12--12-|-----------------------------
D----------------------------------|-----------------------------
A----------------------------------|-----------------------------
E----------------------------------|-----------------------------

Verse 2 Riff: 
  Play chorus riff 2x, then:     Up an octave: (for verse 3)
e-----------------------------|-12--12--14--15----14--14--15--17-
B--5--5--7--8----7--7--8--10--|-13--13--13--13----15--15--15--15-
G--5--5--5--5----7--7--7---7--|----------------------------------
D-----------------------------|----------------------------------
A-----------------------------|----------------------------------
E-----------------------------|----------------------------------

Verse 3 Riff: use tremolo picking throughout
/=slide up      \=slide down
e-10-/15--\8-\7--/10-/15--\8-\7--/8--\5-\2---\8--\5-\2--
B-------------------------------------------------------
G-------------------------------------------------------
D-------------------------------------------------------
A-------------------------------------------------------
E-------------------------------------------------------

Verse 1: (Palm mute chords)
  G        C2    D    G   D   C2
There's a place where I come from
  G        C2    D   G  D  C2
It's the place where I belong
 C2                   D
Where you will never die
 C2                           D
Wipe the tears off from your eyes
 G       C2   D    G    D  C2
Sun and moon and stars above
 G      C2     D    G    D    C2
Never matched this perfect love
 C2                          D
Just look to the painter's hands
 C2                       D
Like an ocean meets it's sand.


Chorus: (Palm mute first time)
  G              C2   D
Digigee digigee dime dime
  G              D    C2
Digigee digigee dime
(play 2x)

Play chorus chords 2x more w/ chorus riff

Verse 2: play w/ verse 2 riff

Chorus 4x (w/ chorus riff)

Verse 3: play w/ verse 3 riff

Chorus 4x (w/ chorus riff)

Bridge:
C2  D       G  Em
I  ride my bus
C2  D       G  Em
I  ride my bus
C2  D       G  Em
I  ride my bus
C2  D    Dsus
I  ride

Play chorus chords 4x (last 2x w/ chorus riff)

verse 4 (palm mute)

Chorus 8x (w/ chorus riff)
 
Chords:
       Open:           W/ Capo @ 3rd fret:
G:     320033                355433
C2:    x32033                x35533
D:     x00232                x57733
Em:    022000                x79933
Dsus:  x00233                x57733

Comments about this tab

No comments/corrections found. Add your own

Complimentary Christian Ringtones
Dadamobile and CGR have teamed up to bring your favorite Christian artists right to your phone. Sign up today and get 10 complementary ringtones!
Tab Country
Did you know CGR has a sister site w/ country guitar tabs? Well we do! Its called Tab Country. It has a great archive with a lot of country tabs.
Rockin Tabs
Are you looking for a site that has rock guitar tabs? Then Rockintabs.com is the place for you. It is a budding site with many rock guitar tabs. Submit your tab today.
Tab Gallery
Tab Gallery has a compilation of christian, rock, and country tabs all in one place. Come visit us.