Guitar Tabs
song title    band name

Join Us Today!

Don't strum alone...
be a part of the largest online Christian music community. Browse thousands of guitar tabs and chat w/ musicians like yourself.


It's Free!

Switchfoot - Chem 6A

This tab has been rated a 1.40 out of 5 for accuracy. (5 votes)Sorry, but you must be logged in to rate this tab.
Click here to log-in, or you can click here to register.
(Registration is free)

All songs owned by corresponding publishing company. If you make copies of any song on this website, be sure to report your usage to CCLI.
Chem6A
by Switchfoot
tabbed by Nolan Rossi

Intro and verse

e-------------------------------------------------------------------------|
B-------------------------------------------------------------------------|
G------^3-------^3------^2------2-h4-2p0-----^3-----^3----^2--------------|
D-------------------------------------------------------------------------|
A-----------2-2-----3-3-----5-5---------------------2-2---3-3----5---2/5--|
E--3-3----------------------------------------3-3-------------------------|

CHORUS:
Em  G  Em  D  C
D  Em  D  G
(REPEAT)

1st Bridge:

G------2/7--7/9--5--0--2--2h3--0--0h2p0---|
D-----------------------------------------|

G------2/7-7-7-7-7--7/12--12/14--14/15--12--12h14--12--|
D------------------------------------------------------|

then strum hard and aggresivlly : 

G--Bm-C-D then on the G string" G-----12/14--14/15--12--12h14--12

or there is a 2nd guitar doing somthin like this:

G--5h7-7-7-|
D--5----5-5-|      repeat

2nd Verse:
(G  C  D) x2

repeat- then kick it into the original verse tab

end riff 
(is somthin like this)

B---------10-----10h12-10-----10---------------------------|
G--9/12-----12---------------12-----12-12--12-12-11-9--12--|

e----------------------------9----------------------|
B------10----10h12-10---12--------------------------|
G--12----12--------------------12--12-12-11-9-11-12-|


I know that there are some 2nd guitar parts that make it sound better,
just dont know what they are. BTW i did this all from memory if I have
anythin wrong let me know.

Comments about this tab

davy the great - 2004-03-03

In the intro i'm pretty sure it's...

e-------------------------------------------------------------------------|
B-------------------------------------------------------------------------|
G------^4-----^4------^3------2-h4-2p0------^4-----^4-----^3--------------|
D-------------------------------------------------------------------------|
A---------2-2-----3-3-----0-0------------------2-2-----3-3-------5---2/5--|
E--3-3-----------------------------------3-3------------------------------|


Monkeypunk11 - 2004-12-03

i think the beginning of the chorus is a Bm not an Em
so Bm-G-Bm-A


Rockerdude6 - 2006-06-08

the chorus gose like this Em G Em A C EM C G


Add a comment/correction

Complimentary Christian Ringtones
Dadamobile and CGR have teamed up to bring your favorite Christian artists right to your phone. Sign up today and get 10 complementary ringtones!
Tab Country
Did you know CGR has a sister site w/ country guitar tabs? Well we do! Its called Tab Country. It has a great archive with a lot of country tabs.
Rockin Tabs
Are you looking for a site that has rock guitar tabs? Then Rockintabs.com is the place for you. It is a budding site with many rock guitar tabs. Submit your tab today.
Tab Gallery
Tab Gallery has a compilation of christian, rock, and country tabs all in one place. Come visit us.