Guitar Tabs
song title    band name

Join Us Today!

Don't strum alone...
be a part of the largest online Christian music community. Browse thousands of guitar tabs and chat w/ musicians like yourself.


It's Free!

Supertones, The - So Great a Salvation

This tab has been rated a 4.00 out of 5 for accuracy. (1 vote)Sorry, but you must be logged in to rate this tab.
Click here to log-in, or you can click here to register.
(Registration is free)

All songs owned by corresponding publishing company. If you make copies of any song on this website, be sure to report your usage to CCLI.
Song: So great a salvation
Artist: The O.C. Supertones
Album: Supertones Stike Back
Copyright 1997, BEC recordings
Tabbed by Casey Broadwater

This is the very last song on the cd... just acoustic and electric guitar.
Here goes...

    A     B     C#     high F#
-------------------------------
-----------------------7-------
----------4-----6------7-------
----7-----4-----6------5-------
----7-----2-----4--------------
----5--------------------------

Intro-  A-B-C# - high F# (2x)

Verse:
(A  B  C#  F#) x4

Chorus:
A      E      F#      D
--------------------------
--------------------------
----------------------7---
7------2------4-------7---
7------2------4-------5---
5-------------2-----------

(A  E  F#  D) x2


Second verse same as the first but...
play this with the same chord progression afterwards

Outro- D-C# - B-A

Well thats about it, its a fun song to play. E-mail me at A5feFan@aol.com
with any corrections or whatever.  

Solo tabbed by Jon King (augosaid.u.t.s.j@juno.com)
+++++++++++++++++++++++++++++++++++++++++++++++++++++++++++++++++++++++++
I think this is pretty accurate though it's not the whole solo, I figured
out up to about 3:03 on the song, so, there's still about 12 seconds of
the solo which I didn't tab 'cause the rest is kinda pointless and it
don't sound that good anyway (plus I'm too lazy).    If anyone else wants
to be cool and figure out the rest feel free.
+++++++++++++++++++++++++++++++++++++++++++++++++++++++++++++++++++++++++


Solo:  (2:31)
|----------------------------------------------------------------|
|---------------------7-9-10--10-9-7-----------------------------|
|--9-7-6--------6-7-9----------------9-7\6--6-6-6-6-6\-2-4-6-7---|
|---------6-7-9--------------------------------------------------|
|----------------------------------------------------------------|
|----------------------------------------------------------------|
 (2:43)
|------------------------------------------------------------------|
|--5---------------------------------------------------------5-7---|
|----7-6-7-6-4--------6-7-9-7h6------------------4/6\4---6-7-------|
|---------------6-7-9----------------------4-5-7-------7-----------|
|------------------------------------4-5-7-------------------------|
|--------------------------------5-7-------------------------------|
 (2:53)
|-----------------------------------------------------------------|
|--7-7-7--10-10-9-7--10-10-9-7--10-10-9-7--10-10-9-7--10-10-9-7---|
|-----------------------------------------------------------------|
|-----------------------------------------------------------------|
|-----------------------------------------------------------------|
|-----------------------------------------------------------------|
 (2:59)
|--10-x-9-7-----------------------------|
|-----------10-7------------------------|
|-----------------/8-7-5-7-5------------|
|----------------------------8-7-5-/7---|
|---------------------------------------|
|---------------------------------------|

Comments about this tab

No comments/corrections found. Add your own

Complimentary Christian Ringtones
Dadamobile and CGR have teamed up to bring your favorite Christian artists right to your phone. Sign up today and get 10 complementary ringtones!
Tab Country
Did you know CGR has a sister site w/ country guitar tabs? Well we do! Its called Tab Country. It has a great archive with a lot of country tabs.
Rockin Tabs
Are you looking for a site that has rock guitar tabs? Then Rockintabs.com is the place for you. It is a budding site with many rock guitar tabs. Submit your tab today.
Tab Gallery
Tab Gallery has a compilation of christian, rock, and country tabs all in one place. Come visit us.