Guitar Tabs
song title    band name

Join Us Today!

Don't strum alone...
be a part of the largest online Christian music community. Browse thousands of guitar tabs and chat w/ musicians like yourself.


It's Free!

Supertones, The - Little Man

This tab has been rated a 5.00 out of 5 for accuracy. (4 votes)Sorry, but you must be logged in to rate this tab.
Click here to log-in, or you can click here to register.
(Registration is free)

All songs owned by corresponding publishing company. If you make copies of any song on this website, be sure to report your usage to CCLI.
Author/Artist: Supertones
Title: Little Man
Album: Supertones Strike Back
Transcribed by: Brian Germer (Soul Detergent Music)
Email: BJG20773@ix.netcom.com


For ska lessons visit: Jars of Christian Guitar Tabs
                       http://www.geocities.com/SunsetStrip/Lounge/6098/index.htm
Chords:


----5-----7-----5----2----4----3-----8----10----|
----5-----7-----5----3----5----3-----8----10----|
----5-----7-----6----2----4----4-----9----11----|
----7-----9-----7--------------5----10----12----|
------------------------------------------------|
------------------------------------------------|
   Am    Bm     A    D    E    G     C    D(ii)                               



Intro:  Am  Bm  - use ska rhythm


Drum fill transition


E5 /  /  (w/dist)


Verse 1: (use ska rhythm)
(A  D  A  E) x2

A5  C5  G5  A5  C5  D5  (2x)

Verse 2

Chorus: x2
A  G  C  D(ii)

Verse 3

Chorus: x4


Dist kicks in...
          D5  G5  A5}
          D5  G5  B5  A5} x2
          
Then...  (G5  A5)  x8 

(A5  C5  G5  A5  C5  D5) x2


Refrain: (play G5   A5  8x)


Chorus 4x (use power chords with dist.)
G  A  


c1997 BEC Recordings

Comments about this tab

supertoneschick - 2005-06-08

WOW!


jesusbassist - 2007-08-12

The Bass line for the intro goes like this:
Slide down the A string
E------------------------------------------------------------------------------
A--0------3-0-----0-------3-2------3-----33-22-00------------------------------
D----2-3-2-----------2-3-2----2-3-2-22-00--------------------------------------
G------------------------------------------------------------------------------

And repeat this several times. enjoy.... cant figure out the rest of the song. all i know is that he plays stuff similar to scales really fast with some slap and pop mixed in there.


Add a comment/correction

Complimentary Christian Ringtones
Dadamobile and CGR have teamed up to bring your favorite Christian artists right to your phone. Sign up today and get 10 complementary ringtones!
Tab Country
Did you know CGR has a sister site w/ country guitar tabs? Well we do! Its called Tab Country. It has a great archive with a lot of country tabs.
Rockin Tabs
Are you looking for a site that has rock guitar tabs? Then Rockintabs.com is the place for you. It is a budding site with many rock guitar tabs. Submit your tab today.
Tab Gallery
Tab Gallery has a compilation of christian, rock, and country tabs all in one place. Come visit us.