Guitar Tabs
song title    band name

Join Us Today!

Don't strum alone...
be a part of the largest online Christian music community. Browse thousands of guitar tabs and chat w/ musicians like yourself.


It's Free!

Supertones, The - Jury Duty

This tab has been rated a 2.00 out of 5 for accuracy. (1 vote)Sorry, but you must be logged in to rate this tab.
Click here to log-in, or you can click here to register.
(Registration is free)

All songs owned by corresponding publishing company. If you make copies of any song on this website, be sure to report your usage to CCLI.
Title: Jury Duty
Artist: Supertones
Album: Loud And Clear
Author: Tony Terusa and Darren Mettler
© 1999 We Own Your Songs
Tabbed by: David Sirois (basstochrist@netscape.net(
Gtr I (E A D G B E)

Intro & Chorus
-------------------------------------------|
-------------------------------------------|
-7-----------------------------------------|   Play many time each note
-7-----9----12-----9----5--/7--5---/7------|   listen to the cd...
-5-----9----12-----9----5--/7--5---/7------|
-------7----10-----7----3--/5--3---/5------|


Verse
-------------------------|
-------------------------|
-7-----9-----5-----7-----|                       Play many time each note
-7-----9-----5-----7-----|                    listen to the cd..
-5-----7-----3-----5-----|
-------------------------|


Bridge(before Chorus)
----------------------------------------------|
----------------------------------------------|
-7---------------------7----------------------|
-7-----9-----5--------7-----9-----5--12-------|
-5-----9-----5--------5-----9-----5--12-------|
-------7-----3---------------7-----3--10------|

the bridge after (at the end) sound like the chorus...
Check on cd for the beat...
I donít find how to play the electric part...sorry
someone else maybe...

if you have any other tab (bass & guitar) from Loud and Clear,
e-mail me: basstochrist@netscape.net or sportmen@hotmail.com

Comments about this tab

No comments/corrections found. Add your own

Complimentary Christian Ringtones
Dadamobile and CGR have teamed up to bring your favorite Christian artists right to your phone. Sign up today and get 10 complementary ringtones!
Tab Country
Did you know CGR has a sister site w/ country guitar tabs? Well we do! Its called Tab Country. It has a great archive with a lot of country tabs.
Rockin Tabs
Are you looking for a site that has rock guitar tabs? Then Rockintabs.com is the place for you. It is a budding site with many rock guitar tabs. Submit your tab today.
Tab Gallery
Tab Gallery has a compilation of christian, rock, and country tabs all in one place. Come visit us.