Guitar Tabs
song title    band name

Join Us Today!

Don't strum alone...
be a part of the largest online Christian music community. Browse thousands of guitar tabs and chat w/ musicians like yourself.


It's Free!

Supertones, The - Escape From Reason

This tab has been rated a 4.00 out of 5 for accuracy. (1 vote)Sorry, but you must be logged in to rate this tab.
Click here to log-in, or you can click here to register.
(Registration is free)

All songs owned by corresponding publishing company. If you make copies of any song on this website, be sure to report your usage to CCLI.
Song: Escape From Reason
By: The O.C. Superrtones
copyright: 2000 superttones songs(SESAC), We Own Your Songs (SESAC).
BEC Recordings.

Itís my first tab so if itís hard to read or understand Iím sorry, but
I hope you enjoy. 
This is an awesome song from an awesome CD.
Intro:4times
e----------------------------------------
b----------------------------------------
g-----------------888---------------888-- 
d--22222222-------888Ė-22222222Ė----888--
a--22222222-------666Ė-22222222Ė----666--
e--00000000------------00000000----------

verse: these ska chords arenít right, but are close. 
Iím not sure how many times you repeat this, Iím too lazy to count.
eó9--------9-------9------9-------7-----7-----
b-----10------10-----10-----10------8-----8---
g--------11-----11-----11-----11------9-----9-
d---------------------------------------------
a---------------------------------------------
e---------------------------------------------

pre-chorus:
e-----------------------
b-----------------------
g-----------------------
d-2--5--6--8--999999----
a-2--5--6--8--999999----
e-1--3--4--6--777777----

Chorus: 
e---------------------------------------------
b---------------------------------------------
g-------------12--12--------------7--7--------
d-22--22--22--12--12--22--22--22--7--7--------
a-22--22--22--10--10--22--22--22--5--5--------
e-00--00--00----------00--00--00--------------

Pre-chorus: This is where only the dj is doing his stuff.
Start with- 
e----
b----
g----
d-22-
a-22- 
e-00-

and when the music comes back:
e----------
b----------
g-888888---
d-888888---
a-666666---
e----------

Flanger Part: with flanger 2times, without 4 times
e-------------------------------
b-------------------------------
g-999-999-9-999-99--------------
d-999-999-9-999-99--7----5------
a-777-777-7-777-77--7----5------
e-------------------5----3------

In between these thereís the part where you play the intro a few times.

Ending:
e---------------------------------------------------------------------------
b---------------------------------------------------------------------------
g-12-----12-12-------------7-7---------------------12-12--22--22--22----888-
d-12-22--12-12-22--22--22--7-7--22----22------22---12-12--22--22--22----888-
a-10-22--10-10-22--22--22--5-5--22----22------22---10-10--22--22--22----666-
e----00--------00--00--00-------00--s--00--s--00----------00--00--00--------
Pm

Order:
Intro
Verse
Pre-chorus
Verse
Pre-chorus (the with no music, Iím not sure what you would call it)
Chorus
Flanger part
Intro part, 4 times
Ending

Hope you enjoy this, and God Bless.

Comments about this tab

No comments/corrections found. Add your own

Complimentary Christian Ringtones
Dadamobile and CGR have teamed up to bring your favorite Christian artists right to your phone. Sign up today and get 10 complementary ringtones!
Tab Country
Did you know CGR has a sister site w/ country guitar tabs? Well we do! Its called Tab Country. It has a great archive with a lot of country tabs.
Rockin Tabs
Are you looking for a site that has rock guitar tabs? Then Rockintabs.com is the place for you. It is a budding site with many rock guitar tabs. Submit your tab today.
Tab Gallery
Tab Gallery has a compilation of christian, rock, and country tabs all in one place. Come visit us.