Guitar Tabs
song title    band name

Join Us Today!

Don't strum alone...
be a part of the largest online Christian music community. Browse thousands of guitar tabs and chat w/ musicians like yourself.


It's Free!

Burlap To Cashmere - Anybody Out There?

This tab has not yet been rated for accuracy.Sorry, but you must be logged in to rate this tab.
Click here to log-in, or you can click here to register.
(Registration is free)

All songs owned by corresponding publishing company. If you make copies of any song on this website, be sure to report your usage to CCLI.
"Anybody Out There?"
By Burlap to Cashmere
Off the album "Anybody Out There?"
Written by Steven Delopoulos
(C) 1997 Steven Delopoulos Publishing (ASCAP)
From Myron Marston (marston@foxcomm.net)

Email me with any comments, suggestions and corrections!

For Verse 1, use a picking pattern like this:
   Bm           A
e------------|-----------|---
B-----3------|-----2-----|---
G-------4-4--|-------2-2-|---
D----4---4---|----2---2--|---
A--2---------|--0--------|---
E------------|-----------|---

Intro: Bm

Verse 1:
 Bm
Sometimes while I'm driving
 A                 Bm
Trying to find my song

Looking for the answers
     A           Bm
And where I do belong
 Bm
Finally the children are
 A                Bm
Bringin' me back home


Chorus:(for first time, use a similar picking pattern to that above)
  Bm      A       G
Ooooooh ooooooh ooooooh
             A        Bm  [Bm(add 4)/A]   Bm
Is there anybody out there
        A     G    G/F#   Em
Does anybody care
                         Bm
Are there people really there
          A        G
Ooooooh ooooooh oooooooh
             A     Bm   [Bm(add 4)/A]   Bm
Is there anybody seeking
         A    G   G/F#  Em
Does anybody see
                             Bm
Or are they deaf and dumb like me


Verse 2:
 Bm
Sometimes while I'm driving
 A              Bm
Looking for my song

Looking for the answers
     A           Bm
And where I do belong
 Bm
Finally the children are
 A                Bm
Bringin' me back home

repeat chorus

Verse 3:
 Bm
Sometimes while I'm driving
 A                 Bm
Still looking my song

Looking for the answers
     A           Bm
And where I do belong
 Bm
Finally Sweet Jesus is
 A                Bm
Bringin' me back home

repeat chorus

guitar solo(see below)

Chorus 2:(Same chords)
Ooooooh ooooooh ooooooh
Is there anybody out there
Does anybody care
Are there people really there
Ooooooh ooooooh ooooooh
Is there anybody seeking
Does anybody see
That He died upon a tree

Solo Part:

-----------------------------------------------------------------------
-----------------------------------------------------------------------
-----------------------------------------------------------------------
-----------------------------------------------------------------------
---------------7--9-9-9-10-9v----7----7--9-9/10--9/10\8/9--------------
--7--7--9--10----------------------10-----------------------9/10\8/9---

-----------------------------------------------------------------------
-----------------------------------------------------------------------
-----------------------------------------------------------------------
-----------------------------------------------------------------------
---------------7--9-9-9-10-9v----7---------7---------------------------
--7--7--9--10----------------------10-9-10---7-------------------------

                                                            Bm
-----------------------------------------------------------------------
-----------------------------------------------------------------------
----------------9--11-11-11-12-11v-----9----9--11-11/12--11------------
--9--9--11--12---------------------------12----------------------------
-----------------------------------------------------------------------
-----------------------------------------------------------------------

              A        G
7-9-10-9-7----7-------------------------------------------------------7
-----------10---8-10-7-8---7-----------------------------7-8---7-8-10--
-------------------------9---7-9-6-7---6-----6-7---6-7-9-----9---------
-------------------------------------9---7-9-----9---------------------
-----------------------------------------------------------------------
-----------------------------------------------------------------------

     A       Bm                                        A
-9---10---12---9---10---12---9---10--9-10-7-9----7---------------------
----------------------------------------------10---7-10---7------------
--------------------------------------------------------9---7-9--------
-----------------------------------------------------------------------
-----------------------------------------------------------------------
-----------------------------------------------------------------------

 G                  G/F#             Em
---------------------------------------------------7-------------------
----------7--8--------7--8-8-10------7-7-8-8-8-10----------------------
-6--7--9---------7--9-------------9------------------------------------
-----------------------------------------------------------------------
-----------------------------------------------------------------------
-----------------------------------------------------------------------
                                       Bm
------------7--9---9b10--9--7------7---9--10p9p8p7---------------------
--8--10-10---------------------10--------------------------------------
-----------------------------------------------------------------------
-----------------------------------------------------------------------
-----------------------------------------------------------------------
-----------------------------------------------------------------------

Chords:                       Key:

Bm:          x24432           []: play chord first time only
Bm(add 4)/A: x04430               don't play chord first time
A:           x02220           v:  vibrato
G:           320033           /:  slide up
G/F#:        2x0033           \:  slide down
Em:          022000           b:  bend
                              p:  pull off

Comments about this tab

No comments/corrections found. Add your own

Complimentary Christian Ringtones
Dadamobile and CGR have teamed up to bring your favorite Christian artists right to your phone. Sign up today and get 10 complementary ringtones!
Tab Country
Did you know CGR has a sister site w/ country guitar tabs? Well we do! Its called Tab Country. It has a great archive with a lot of country tabs.
Rockin Tabs
Are you looking for a site that has rock guitar tabs? Then Rockintabs.com is the place for you. It is a budding site with many rock guitar tabs. Submit your tab today.
Tab Gallery
Tab Gallery has a compilation of christian, rock, and country tabs all in one place. Come visit us.