Guitar Tabs
song title    band name

Join Us Today!

Don't strum alone...
be a part of the largest online Christian music community. Browse thousands of guitar tabs and chat w/ musicians like yourself.


It's Free!

Stryper - To Hell With the Devil

This tab has been rated a 5.00 out of 5 for accuracy. (2 votes)Sorry, but you must be logged in to rate this tab.
Click here to log-in, or you can click here to register.
(Registration is free)

All songs owned by corresponding publishing company. If you make copies of any song on this website, be sure to report your usage to CCLI.
Song: To Hell With the Devil (solo)
Artist: Stryper


This is all I know of the solo. I've tried it many ways and this is the best. 
 -altmail28@yahoo.com 
 see my webpage at guitar28.8m.com




e------7-4-0---7-4-0---7-4-0---7-4-0---7-4-0-----13-8-5---13-8-5---13-8-5-
B-------------------------------------------------------------------------
G-------------------------------------------------------------------------
D-------------------------------------------------------------------------
A-------------------------------------------------------------------------
E-------------------------------------------------------------------------


e-------13-8-5-----------10---19--19/20\19---------------------------------
B--------------------------------------------------------------------------
G--------------10-------9----------------------9-10--9-10---7-9--7-9-------
D----------------------------------------------9-10--9-10---7-9--7-9-------
A--------------------------------------------------------------------------
E--------------------------------------------------------------------------

e--------------------------------------------------------------------------
B---------------------------------12-13-15-13-12-13-12-----12-13-15--------
G-------5-7--5-7---4-5--4-5--2-------------------------14------------------
D-------5-7--5-7---4-5--4-5--2---------------------------------------------
A----------------------------0---------------------------------------------
E--------------------------------------------------------------------------


e------12-13-15--20---------12---------------------------------------------
B------------------------------15-13-12--15-13-12-----13-12-------12-------
G-------------------------------------------------14--------14-12----14-12-
D--------------------------------------------------------------------------
A--------------------------------------------------------------------------
E--------------------------------------------------------------------------


e--------------------------------------------------------------------------
B--------------------------------------------------------------------------
G-----------14-12---------12----------------------9--7---------------------
D------15----------15-14----15-14-12--10-10-9-7--------10--9--9/10--7------
A-----------------------------------------------8--------------------------
E--------------------------------------------------------------------------



e-----------------24/(25)-22-----------------------------------------------
B------22-24/(25)----------------------------------------------------------
G------------------------------9-10-12---9-10-12---9-10-12---9-10-12-------
D--------------------------------------------------------------------------
A--------------------------------------------------------------------------
E--------------------------------------------------------------------------


e--------------------------------------------------------------------------
B-------------------------------------------------------10------------10---
G------9-10-12---9-10-12---9-10-12---9-10-12---9-10-12-----12-9-10-12------
D--------------------------------------------------------------------------
A--------------------------------------------------------------------------
E--------------------------------------------------------------------------


e--------------------------------------------------------------------------
B----------------10------------10------------------------------------------
G-----12-9-10-12-----12-9-10-12----12-9-9/(10)\9--7-5--7-5-4-7-5-4-5-4-----
D-----------------------------------------------------------------------7--
A--------------------------------------------------------------------------
E--------------------------------------------------------------------------


e-------------------------17--15-----24/(25)-22-----------22-23-24-25-26-27
B--------------------------------17--------------22-24-25------------------
G--------------------------------------------------------------------------
D-----7--\--6--\--5--------------------------------------------------------
A-----7--\--6--\--5--------------------------------------------------------
E-----5--\--4--\--3--------------------------------------------------------


e-------------------------------|
B-------------------------------|
G-------------------------------|
D-----7---5---------------------|
A------------7---6---5----------|
E-----------------------8---5---|

Too bad Oz Fox doesn't know how to play the guitar!

Comments about this tab

guitarguy - 2005-06-28

I don't get it. Oz Fox is a guitar genious.


ieatdirt - 2005-10-17

How did the guitarist get a guitar with 27 frets?


Da Flufsta - 2005-10-27

so oz fox made this tab and not micheal sweet?


flare1028us - 2006-04-15

ieatdirt, Oz probably just uses his whammy bar with .09 or .08 strings to get the 27th fret note.


groove4christ - 2008-04-15

some hamer guitars have 27 frets.


RawkerBear - 2008-06-03

Dude! 27 frets, that's insane! Igot to get me one of those.


laforest - 2008-06-17

7 string guitar maybee


RockN4TheOne - 2008-12-20

At the time Oz recorded this song...27 fret guitars weren't in circulation.
At the time of this recording Oz was playing Charvel guitars and I believe the
pricely Jackson. 24 frets was the bomb back then. I'm going to check this
tab out and see what I can come up with. I know that michael used the Pricely
Jackson. Y'all Keep Rock"N"


Add a comment/correction

Complimentary Christian Ringtones
Dadamobile and CGR have teamed up to bring your favorite Christian artists right to your phone. Sign up today and get 10 complementary ringtones!
Tab Country
Did you know CGR has a sister site w/ country guitar tabs? Well we do! Its called Tab Country. It has a great archive with a lot of country tabs.
Rockin Tabs
Are you looking for a site that has rock guitar tabs? Then Rockintabs.com is the place for you. It is a budding site with many rock guitar tabs. Submit your tab today.
Tab Gallery
Tab Gallery has a compilation of christian, rock, and country tabs all in one place. Come visit us.