Guitar Tabs
song title    band name

Join Us Today!

Don't strum alone...
be a part of the largest online Christian music community. Browse thousands of guitar tabs and chat w/ musicians like yourself.


It's Free!

Stryper - To Hell With the Devil

This tab has been rated a 4.20 out of 5 for accuracy. (5 votes)Sorry, but you must be logged in to rate this tab.
Click here to log-in, or you can click here to register.
(Registration is free)

All songs owned by corresponding publishing company. If you make copies of any song on this website, be sure to report your usage to CCLI.
To Hell With The Devil 
Stryper
Tabbed by: Cody
There are actually 5 guitar parts , but I only tabbed the song for two.

Tune down half a step
(4/4 Time)

Intro:
Gtr. 1
  A5                                 F5
e------|-------|---------|---------|---------------|
b------|-------|---------|---------|---------------|
g---2--|--(2)--|--(2)----|--(2)----|---------------|
D---2--|--(2)--|--(2)----|--(2)----|-3-------------|
A---0--|--(0)--|--(0)----|--(0)----|-3-------------|
E------|-------|---------|---------|-1-------------|
  (Hold A5 Til F5)                                 |
Gtr. 2                                             |
e------|-------|-20~~~~~~|-19~~~~~~|---------------|
b------|-------|---------|---------|-20-(20)~~~~~~-|
g------|-------|---------|---------|---------------|
D------|-------|---------|---------|---------------|
A------|-------|---------|---------|---------------|
E------|-------|---------|---------|---------------|

Gtr. 1
   F5                            G5             E5  A5        G5
e--------------------------------------------------|--------|---------|
b--------------------------------------------------|--------|---------|
g--------------------------------------------------|-2------|--0------|
D--3------------------------------5--------------2-|-2------|--0------|
A--3------------------------------5--------------2-|-0------|--x------|
E--1------------------------------3--------------0-|--------|--3------|
                                                                      |
Gtr. 2
e-------------------------------------------------|-20~~~~~~|-19~~~~~~|
b-(20)---20--18h20-18\17-----18--17h18--17\15-----|---------|---------|
g----------------------------------------------17-|---------|---------|
D-------------------------------------------------|---------|---------|
A-------------------------------------------------|---------|---------|
E-------------------------------------------------|---------|---------|

Gtr.1
  F5                      E5
e-----------------------|---------------------|
b-----------------------|---------------------|
g-----------------------|---------------------|Repeat Intro
D-3---------------------|----------------2--0-|
A-3---------------------|--2------2------3--2-|
E-1---------------------|--0---3--3--3/3------|
                                              |
Gtr. 2                  (** first time     **)|(** second time **)
e-----------------------|---------------------|-----------------------|
b-20~~~~~~--b20--18\17--|-17h18--17\15--------|-17h18--17\15----------|
g-----------------------|--------------17--16-|--------------17-16~~~~|
D-----------------------|---------------------|-----------------------|
A-----------------------|---------------------|-----------------------|
E-----------------------|---------------------|-----------------------|


Gtr. 1
   A5
e-------|-------|-------|-------------------|
b-------|-------|-------|-------------------|
g---2---|--(2)--|--(2)--|-------------------|
D---2---|--(2)--|--(2)--|--2--2---2---------|
A---0---|--(0)--|--(0)--|--0--3---3--2--3/0-|
E-------|-------|-------|------------3------|
Hold A5 til riff
Gtr. 2
e-------|-------|-------|-------------------|
b-------|-------|-------|-------------------|
g-------|-------|-------|-------------------|
D-------|-------|-------|-------------------|
A-------|-------|-------|-------------------|
E-------|-------|-------|-------------------|

Verse 1:
N.C.
Well, speak of the devil 
He's no friend of mine
To turn from him is what we've got in mind

Gtr. 1 & 2
                      A5
e-------------------|-------------------|---------------------------|
b-------------------|-------------------|--------------0h1--1--1--1-|
g-------------------|-------------------|--------------0h2--2--2--2-|
D--2----2-----------|--------------2----|--------2------------------|
A--3----3----2--3/0-|--0--0--0--0--0--0-|--0--0--0--0---------------|
E------------3------|-------------------|---------------------------|
                     Just a liar and___  ___  a     thief

Gtr. 1 & 2
           A5                                         G5
e--------------------------|------------------------|---------------|
b-(1)----------------------|------------------------|---------------|
g-(2)----------------------|------------------------|-0-------------|
D---------------------2----|-------2-----------2----|-0-------------|
A---------0--0--0--0--0--0-|-0--0--0--0--0--0--0--0-|-x-------------|
E--------------------------|------------------------|-3-------------|
     the  word tells us so                      We'd like to let him 

Gtr. 1 & 2

e---------------------|
b---------------------|
g------------------2--|
D--2---0-----------2--|
A--3---2---3/0--2--0--|
E---------------3-----|
know where he can go...

Chorus:
Gtr. 1
       F5      G5         A5             N.C.         F5
e----|------|-----------|---------|-----------------|-------------------|
b----|------|-----------|---------|-----------------|-------------------|
g----|------|--0--------|--2------|-(2)-------------|-------------------|
D----|--3---|--0--------|--2------|-(2)--2-0--------|-3-----------------|
A----|--3---|--x--------|--0------|-(0)--3-2--3/0-2-|-3-----------------|
E----|--1---|--3--------|---------|---------------3-|-1-----------------|

Gtr. 2	
e----|------|-----------|-20/17---|--19/15----------|-------------------|
b----|------|-----------|---------|-----------------|-20/17----(20)/17\-|
g----|------|-----------|---------|-----------------|-------------------|
D----|------|-----------|---------|-----------------|-------------------|
A----|------|-----------|---------|-----------------|-------------------|
E----|------|-----------|---------|-----------------|-------------------|
  To   hell   with___the devil                To     hell

Gtr. 1
   G5                A5
e-----------------|---------|------|------|----------------------|
b-----------------|---------|------|------|----------------------|
g--0--------------|---2-----|-(2)--|-(2)--|-(2)(2)---------------|
D--0--------------|---2-----|-(2)--|-(2)--|-(2)(2)-2---2---------|
A--x--------------|---0-----|-(0)--|-(0)--|-(0)(0)-3---3--2--3/0-|
E--3-----------b3-|---------|------|------|---------------3------|
  with   the        devil

Verse 2:(same as verse 1)
When things are going wrong
you know who to blame
He will always live up to his name
He's been the answer
There's a better way
We are here to rock you and say

Repeat Chorus

Good luck with the solo!

Repeat chorus

This was as best as I can do, hope you enjoy it!

Comments about this tab

internalflames - 2005-08-28

This was very good,however I found one mistake. On the second verse, its not "he's been the answer" its supposed to be "he's NEVER been the answer". Other than that, its really good. But if sung incorrectly, you don't really get the point across. Keep rockin on dude!


Da Flufsta - 2005-11-04

have any of you guys listen to Stryper's new cd "Reborn" because its awsome and I'm not good enough to tab their songs


Da Flufsta - 2005-11-25

actually I was able to tab live again it just hasn't apeared yet on this site


Da Flufsta - 2006-01-20

oh by the way awsome tab


Guitar4God222 - 2007-02-11

amazing tab dude!!!!!! this song is awesome

i was messin around on my guitar with the chorus to this song and got:

E G F# D E
TO HELL WITH THE DEVIL

if anyone could tab "makes me wanna sing" that would be awesome!

GOD BLESS,

Ross


RockN4TheOne - 2008-12-20

Anyone know the lead on Soldiers under command?


Add a comment/correction

Complimentary Christian Ringtones
Dadamobile and CGR have teamed up to bring your favorite Christian artists right to your phone. Sign up today and get 10 complementary ringtones!
Tab Country
Did you know CGR has a sister site w/ country guitar tabs? Well we do! Its called Tab Country. It has a great archive with a lot of country tabs.
Rockin Tabs
Are you looking for a site that has rock guitar tabs? Then Rockintabs.com is the place for you. It is a budding site with many rock guitar tabs. Submit your tab today.
Tab Gallery
Tab Gallery has a compilation of christian, rock, and country tabs all in one place. Come visit us.